Song name
# A B C D E F G H I J K L M N O P Q R S T U V W X Y Z

Saxon - Attila The Hun tab

Tempo is about 112 bpm
Tuning: 1/2 Step Down
Intro:
e|----------------------------|--------------------------------------------|
B|----------------------------|--------------------------------------------|
G|----------------------------|--------------------------------------------|
D|----------------------------|--------------------------------------------|
A|-7h9-9-9--9-9--9-9--10-7----|---7h9-9-9--9-9--9-9--9-10------------------|
E|-7---7-7--7-7--7-7--8--5----|---7---7-7--7-7--7-7--7-8-------------------|
Fig 1:                                                           Fill 1
e|----------------------------|---------------------------------|----------|
B|----------------------------|---------------------------------|----------|
G|----------------------------|---------------------------------|----------|
D|----------------------------|---------------------------------|----------|
A|-7h9-9-9--9-9--9-9--10-7-7-7|---7h9-9-9--9-9--9-9--9-10-10-10-|----------|
E|-7---7-7--7-7--7-7--8--5-5-5|---7---7-7--7-7--7-7--7-8-8-8-8--|-12\------|
Verse 1:
e|----------------|---------------|----------------|-----------------------|
B|----------------|---------------|----------------|-----------------------|
G|----------------|---------------|----------------|-----------------------|
D|----------------|------------6~-|----------------|------------7p6--------|
A|-x-7--7-8p7-5h7-|-x-7--7-7h8----|-x-7--7-8p7-5h7-|-x-7--7-7h8------------|
E|----------------|---------------|----------------|-----------------------|
Chorus:
e|----------------------------|--------------------------------------------|
B|----------------------------|--------------------------------------------|
G|-9-10--7--9--7--9--9--10-7--|-9--10-7--9--7--9--9--10-3------------------|
D|-9-10--7--9--7--9--9--10-7--|-9--10-7--9--7--9--9--10-3------------------|
A|-7-8---5--7--5--7--7--8--5--|-7--8--5--7--5--7--7--8--1------------------|
E|-0-----------------0--------|-0-----------------0------------------------|
Verse 2 is just the Fig 1 again, then chorus, then
Fig 2:
e|--------------------|----------------------------------------------------|
B|-----pm-|-----------|------pm-|------------------------------------------|
G|--------------------|----------------------------------------------------|
D|--9--99999----10----|---9--99999----10-9---------------------------------|
A|--7--77777----10----|---7--77777----10-9---------------------------------|
E|--0--00000----8-----|---0--00000----8--7---------------------------------|
Then Fig 1 Again
Keyboard Chords   Guitar comes in
e|---|---|---|---|---------------------------------------------------------|
B|---|---|---|---|---------------does that a few times---------------------|
G|---|---|---|---|---------------------------------------------------------|
D|-9-|-7-|-9-|-10|---------------------------------------------------------|
A|-9-|-7-|-9-|-10|-99999-9-9-9-9-------------------------------------------|
E|-7-|-5-|-7-|-8-|-77777-7-7-7-7-------------------------------------------|
Harmony Bit: (Fig 1 over the top) Other guitar comes in eventually with:
e|------------------------------|------------------------------------------|
B|------------------------------|--7h8p7---7-7h8p7---7-7h8p7---------------|
G|-4h5p4---4-4h5p4---4-4h5p4----|--------9---------9---------9-------------|
D|-------7---------7---------7--|------------------------------------------|
A|------------------------------|------------------------------------------|
E|------------------------------|------------------------------------------|
Then Verse 1 thing again then Chorus bit without singing, Fig 2, Fig 1, Chorus, then:
Fig 3 (and Solo Rhythm)
e|---------------------|-----------------------|---------------------------|
B|---------------------|-----------------------|---------------------------|
G|---------6--5--------|----------6--7---------|---------------------------|
D|-4----7--6--5--------|--4----7--6--7---------|---------------------------|
A|-4----7--4--3--------|--4----7--4--5---------|---------------------------|
E|-2----5--------------|--2----5---------------|---------------------------|
Chorus again a few times
Then Outro:
e|-----------------|-----------|-----------|-------------------------------|
B|-----------------|-----------|-----------|-------------------------------|
G|-7--9--10--9-----|--7--9--10-|-----------|--10---------------------------|
D|-7--9--10--9-----|--7--9--10-|-----------|--10--------7------------------|
A|-5--7--8---7-----|--5--7--8--|--drum bit-|--8---------7------------------|
E|-----------------|-----------|-----------|------------5------------------|

Key:
h = hammer on
p = pull off
\ = slide out downwards
x = muted note (dont press your finger down on the note all the way)
~ = vibrato (shake the note)
pm = palm mute
Tap to rate this tab
# A B C D E F G H I J K L M N O P Q R S T U V W X Y Z