Guitaretab - guitar tabs
Song name
# A B C D E F G H I J K L M N O P Q R S T U V W X Y Z

Saxon - Flying On The Edge tab

Dont have my guitar with me at the minute so fills might be slightly off but rest
is definetly right
Tuned one half step down (low to high D#G#C#F#A#d#)

 Intro/Verse                                    
d#|-----------------------|------------------------------------------------|
A#|-----------------------|----------------------------------------p.h-----|
F#|-----------------------|---------------------every so often ------------|
C#|-----------------------|-------------------5----replace -5-with---------|
G#|-4/5-----2----2----2---|-4/5-----2----2----3-------------3-----<3>~-----|
D#|-2/3-0-0-0--0-0--0-0---|-2/3-0-0-0--0-0--0------------------------------|

d#|-----------------------|------------------------------------------------|
A#|-----------------------|---------------------------(p.h)----------------|
F#|-----------------------|-------------------------quarter bend-----------|
C#|-----------------------|------------------------------------------------|
G#|-4/5-----2----2----2---|-4/5-----2----2-------5---<5b>------------------|
D#|-2/3-0-0-0--0-0--0-0---|-2/3-0-0-0--0-0-0-2-3---3-----------------------|
[ Tab from: http://www.guitaretab.com/s/saxon/109063.html ]
d#|-----------------------|------------------------------------------------|
A#|-----------------------|-----------------5-5-5-5------------------------|
F#|-----------------------|-----------------5-5-5-5------------------------|
C#|-----------------------|-----------------5-5-5-5------------------------|
G#|-4/5-----2----2----2---|-4/5-----2----2---------------------------------|
D#|-2/3-0-0-0--0-0--0-0---|-2/3-0-0-0--0-0---------------------------------|

d#|-----------------------|------------------------------------------------|
A#|-----------------------|---------------------------(p.h)----------------|
F#|-----------------------|-------------------------quarter bend-----------|
C#|-----------------------|------------------------------------------------|
G#|-4/5-----2----2----2---|-4/5-----2----2-------5---<5b>------------------|
D#|-2/3-0-0-0--0-0--0-0---|-2/3-0-0-0--0-0-0-2-3---3-----------------------|

just keep repeating top 2 sections of intro(or first four bars, same thing)
for verse.

chorus                                   interlude
d#|-------------|-----------------------|-------------|-------|------------|
A#|-------------|-----------------------|-------------|-------|-outro------|
F#|-9--9-9-9-7--|--5--4---2-2-----------|-----9-------|-end-7-|------------|
C#|-9--9-9-9-7--|--5--4---2-2-5--5-4-2--|---9----9----|-----7-|----2----2--|
G#|-7-----------|--3--2---0-0-5--5-4-2--|-7--------7--|-----5-|------------|
D#|-------------|-------------3--3-2-0--|-------------|-------|-3b---3b----|

chorus riff under solo then basically these riffs 'til the end.
Related for Flying On The Edge tab
Advertisement will be closed in 10 seconds