Song name
# A B C D E F G H I J K L M N O P Q R S T U V W X Y Z

Saxon - Let Me Feel Your Power tab

Am I actually going to have to tab this whole album!
Nobody else seems to be.
Tuning: 1/2 step down

Intro/Chorus
D#|--------------------------------------|---------------------------------|
A#|--------------------------------------|---------------------------------|
F#|--------------------------------------|------------------------------AH-|
C#|--------------------------------------|---------------------------------|
G#|-3p0-0-0-3p0-0-0-3p-0-5p0-6p0-5p0-3p0-|-3p0-0-0-3p0-0-0-3p-0-5p0-6p0-5~-|
D#|--------------------------------------|---------------------------------|

Verse
D#|--------------------------------|---------------------------------------|
A#|--------------------------------|---------------------------------------|
F#|--------------------------------|---------------------------------------|
C#|--------------------------------|---------------------------------------|
G#|--------------------------------|-----------------------------3~--------|
D#|-3p0-0-3p0-0-3p0-3p0-0-3p0-0-6~-|-3p0-0-3p0-0-3p0-3p0-0-3p0-0-----------|

Pre Chorus
D#|-------------------------------------------|----------------------------|
A#|-------------------------------------------|----------------------------|
F#|-------------------------------------------|----------------------------|
C#|-9-9-9-9--9---7-7-7-7--8---9-9-9-9--9---7--|----------------------------|
G#|-7-7-7-7--7---5-5-5-5--6---7-7-7-7--7---5--|----------------------------|
D#|-------------------------------------------|----------------------------|

Alternate Chorus Ending (Into Solo)   Solo Rhythm                 Outro
D#|----------------------------------|--------------|------------|---------|
A#|----------------------------------|--------------|------------|---------|
F#|----------------------------------|--------------|------------|---------|
C#|----------------------------------|--------------|------------|-5-5\----|
G#|-3p0-0-0-3p0-0-0-3p-0-5-6-5-3-----|-2--9-8-7--5--|--2--9-8-7--|-3-3\----|
D#|------------------------------6-5-|-0--7-6-5--3--|--0--7-6-5--|---------|

 /  slide up
 \  slide down
 h  hammer-on
 p  pull-off
 ~  vibrato
 < > harmonic
 x  Mute note
 AH = pinch harmonic
Tap to rate this tab
# A B C D E F G H I J K L M N O P Q R S T U V W X Y Z