Song name
# A B C D E F G H I J K L M N O P Q R S T U V W X Y Z

Saxon - To Live By The Sword tab

drop C# tuning tempo about 147 bpm 3/4 time (Guitar Pro soon)

main riff:
      PM PM PM PM PM PM PM PM PM PM PM PM    PM PM PM PM PM PM          
      S  S  S  S  S  S  S  S  S  S  S  S     S  S  S  S  S  S  E.  E.   
D#||--------------------------------------|----------------------------|
A#||--------------------------------------|----------------------------|
F#||--------------------------------------|----------------------------|
C#||--------------------------------------|--------------------7---5---|
G#||--------------------------------------|--------------------8---7---|
C#||--0--0--0--0--0--0--3p-0--0--0--0--0--|--5p-0--0--0--0--0----------|


  PM PM PM PM PM PM PM PM PM PM PM PM    PM PM PM PM PM PM          
  S  S  S  S  S  S  S  S  S  S  S  S     S  S  S  S  S  S  E.  E.   
--------------------------------------|----------------------------|
--------------------------------------|----------------------------|
--------------------------------------|----------------------------|
--------------------------------------|--------------------7---L---|
--------------------------------------|--------------------8---L---|
--0--0--0--0--0--0--3p-0--0--0--0--0--|--5p-0--0--0--0--0----------|

Chorus 1
  H.              H.              H.              H.             
---------------|---------------|---------------|---------------|
---------------|---------------|---------------|---------------|
---------------|---------------|---------------|---------------|
--7------------|--5------------|--7------------|--5------------|
--8------------|--7------------|--8------------|--7------------|
---------------|---------------|---------------|---------------|

Interlude
  PM PM PM PM PM PM           PM PM PM PM PM PM         
  S  S  S  S  S  S  Q.        S  S  S  S  S  S  Q.      
---------------------------|---------------------------|
---------------------------|---------------------------|
--------------------2------|--------------------0------|
--------------------3------|--------------------2------|
---------------------------|---------------------------|
--3--3--3--3--3--3---------|--2--2--2--2--2--2---------|

Chorus 2

  PM PM PM            PM PM PM            PM PM PM           PM PM PM 
  E  E  E  E.  E.     E  E  E  E.  E.     E  E  E  E.  E.     E  E  E  E. E.
-------------------|-------------------|-------------------|---------------|
-------------------|-------------------|-------------------|---------------|
-------------------|-----------0---0---|-----------2---2---|-----------0-0-|
-----------3---3---|-----------2---2---|-----------3---3---|-----------2-2-|
-----------5---5---|-------------------|-------------------|---------------|
--0--0--0----------|--2--2--2----------|--3--3--3----------|--2--2--2------|


  PM PM PM            PM PM PM            PM PM PM                          
  E  E  E  E.  E.     E  E  E  E.  E.     E  E  E  E.  E.     H.            
-------------------|-------------------|-------------------|---------------|
-------------------|-------------------|-------------------|---------------|
-------------------|-----------0---0---|-----------2---2---|---------------|
-----------3---3---|-----------2---2---|-----------3---3---|--9------------|
-----------5---5---|-------------------|-------------------|--7------------|
--0--0--0----------|--2--2--2----------|--3--3--3----------|---------------|

Interlude/Outro
   E.  E.  E.  E.     H.              E.  E.  E.  E.     Q.      Q.      
-------------------|---------------|------------------|-----------------|
-------------------|---------------|------------------|-----------------|
---5---7-----------|--5------------|--2---3-----------|--8------10------|
---5---7-----------|--5------------|--2---3-----------|--8------10------|
---3---5-----------|--3------------|--0---1-----------|--6-------8------|
-------------------|---------------|------------------|-----------------|


  E.  E.  E.  E.     H.             E.  E.  E.  E.    S. S. S. S. S. S. E.
------------------|--------------|-----------------|----------------------||
------------------|--------------|-----------------|-two guitars harmony--||
--5---7-----------|--5-----------|--2---3----------|--5--3--2--5--3--2----||
--5---7-----------|--5-----------|--2---3----------|--7--5-----7--5-----5-||
--3---5-----------|--3-----------|--0---1----------|--------8--------8--7-||
------------------|--------------|-----------------|----------------------||

Solo Rhythm
  S S S S S S S  S S S S S    S  S S S S S E.  E.   
---------------------------|-----------------------|
---------------------------|-----------------------|
---------------------------|---------------7---5---|
---------------------------|---------------8---7---|
--0-0-0-0-0-0-3p-0-0-0-0-0-|--5p-0-0-0-0-0---------|
---------------------------|-----------------------|


  S S S S S S S  S S S S S    S  S S S S S E.  E.    
---------------------------|-----------------------||
---------------------------|-----------------------||
---------------------------|---------------7---L---||
---------------------------|---------------8---L---||
--0-0-0-0-0-0-3p-0-0-0-0-0-|--5p-0-0-0-0-0---------||
---------------------------|-----------------------||
Tap to rate this tab
# A B C D E F G H I J K L M N O P Q R S T U V W X Y Z