Song name
# A B C D E F G H I J K L M N O P Q R S T U V W X Y Z

Saxon - Dogs Of War tab

INTRO + VERSE 1
e[-----------------------------------------------------------------------]
B[-----------------------------------------------------------------------]
G[--8--11-10--6--5--4-3---8---11-10---T-----4----------------------------]
D[--8--11-10--6--5--4-3---8---11-10----A----4--5-4-----------------------]
A[--6--9--8---4--3--2-1---6---9--8------K---2--5-4-----------------------]
E[---------------------------------------Y-----3-2-----------------------] 

VERSE 2
e[-------------------------------------------------------------------------------------------------------------]
B[-------------------------------------------------------------------------------------------------------------]
G[-3-----3-----3-------2-----2---2--3---5-----5---5-----3-----2--3--5-----3-----3-----3-------2-----2---2--3---]
D[-3-----3-----3-------2-----2---2--3---5-----5---5-----3-----2--3--5-----3-----3-----3-------2-----2---2--3---]
A[-1-1-1-1-1-1-1-1---1-0-0-0-0-0-0--1---3-3-3-3-3-3-3-3-1-1-1-0--1--3-----1-1-1-1-1-1-1-1---1-0-0-0-0-0-0--1---]
E[-------------------------------------------------------------------------------------------------------------] 


e[-----------------------------------------------------------------------]
B[-----------------------------------------------------------------------]
G[--5-----5-----5-------3-----2----5-------------------------------------]
D[--5-----5-----5-------3-----2----5-------------------------------------]
A[--3-3-3-3-3-3-3-3---3-1-1-1-0----3-------------------------------------]
E[-----------------------------------------------------------------------] 

 Dogs of waar.....
e[-----------------------------------------------------------------------------------]
B[-----------------------------------------------------------------------------------]
G[--8---11--10---6----8----11--10---6---4-----8---11--10-----6-----8----11--10--6---4]
D[--8---11--10---6----8----11--10---6---4-----8---11--10-----6-----8----11--10--6---4]
A[--6---9---8----4----6----9---8----4---2-----6---9---8------4-----6----9---8---4---2]
E[-----------------------------------------------------------------------------------] 

  2:12 pod solem
e[-----------------------------------------------------------------------]
B[-----------------------------------------------------------------------]
G[--------2--------------------------------------------------------------]
D[-2-4-3--2--3-----------------------------------------------------------]
A[-2-4-3--0--1-----------------------------------------------------------]
E[-0-2-1-----------------------------------------------------------------] 

 END
e[-----------------------------------------------------------------------]
B[-----------------------------------------------------------------------]
G[--8--------------------------------------------------------------------]
D[--8--------------------------------------------------------------------]
A[--6--------------------------------------------------------------------]
E[-----------------------------------------------------------------------] 
Tap to rate this tab
 
# A B C D E F G H I J K L M N O P Q R S T U V W X Y Z