Song name
# A B C D E F G H I J K L M N O P Q R S T U V W X Y Z

Saxon - Burning Wheels tab

Dogs of War album. Don't know the fills or solos yet, but couldn't play them if I did anyway!
Main riff                Pre-Chorus      Chorus              
d#|---------------------|-------|-------|--------------------|
A#|---------------------|-------|-------|--------------------|
F#|o----2-4-2----------o|o-4-4-o|o-6-6-o|o-7---------9------o|
C#|o4---2-4-2-4---2--4-o|o-4-4-o|o-6-6-o|o-7----7----9----9-o|
G#|-4---------4---2--4--|--2-2--|--4-4--|--5----7----7----9--|
D#|---------------------|-------|-------|-------5---------7--|

Two Guitar bit after chorus
d#|-------17-19-17----|
A#|-17-19-10-12-10-19-|
F#|-9--11----------11-|
C#|-------------------|
G#|-------------------|
D#|-------------------|
                                                 sweeping( rhythm easy to work out yourself)
d#|--------------------------|--------------------|------------------------|
A#|--------------------------|--------------------|------------------------|
F#|o------9-11-9------------o|o----5-7-5---------o|----------7--5--4-------|
C#|o-11---9-11-9-11---9--11-o|o-7--5-7-5-7---5-7-o|-2--7--2--7--5--4-------|
G#|--11----------11---9--11--|--7--------7---5-7--|-2--7--2--5--3--2-------|
D#|--------------------------|--------------------|-0--5--0----------------|

outro(two guitars)
d#|-----------------|-rhythm----------|-------------------|
A#|-----10-12-10----|-----------------|-end---------------|
F#|-11--2--4--2--11-|-11--9---7---4---|-------------------|
C#|-4------------4--|-11--9---7---4---|-2-4-------------4-|
G#|-----------------|-9---7---5---2---|-2-4-------------4-|
D#|-----------------|-----------------|-0-2-------------2-|



Tap to rate this tab
 
# A B C D E F G H I J K L M N O P Q R S T U V W X Y Z