Song name
# A B C D E F G H I J K L M N O P Q R S T U V W X Y Z

Saxon - Give It All Away tab

Off of Dogs of War, everything but outro solo.
main riff
d#|-------------------------------------------|----------------------------|
A#|--------------3-3-3-3-------------------3--|---Gtr ii-during verse------|
F#|---------2----2-2-2-2-2------------2----2--|------------------all pm----|
C#|-2-2-2-2-2----0-0-0-0-2----2-2-2-2-2----0--|----------------------------|
G#|-2-2-2-2-0------------0----2-2-2-2-0-------|-2-2-2-2-2-2-2-2------------|
D#|-0-0-0-0-------------------0-0-0-0---------|-0-0-0-0-0-0-0-0------------|

Chorus                                    pm----|
d#|-------------|------5-5-5--4-4-4--|------------2-----------|------------|
A#|----------3--|-5----5-5-5--5-5-5--|-Gtr----------2----3----|-5----------|
F#|o------2--2-o|-4----4-4-4--4-4-4--|-ii-----2-------2--2----|-4----------|
C#|o-4----2--0-o|-2----2-2-2--2-2-2--|----------4--------0----|-2----------|
G#|--4----0-----|--------------------|------4-----------------|------------|
D#|--2----------|--------------------|----2-------------------|------------|

Solo
d#|----------------|----------------|
A#|----------------|----------------|
F#|-------2-4-2----|------2-4-2-4b--|
C#|-4--4--------4--|-4--4-----------|
G#|----------------|----------------|
D#|----------------|----------------|

d#|-12b--12b--12b-12-10-9------------------------------9----12----9--------|
A#|-----------------------12-10-9------------------------------------------|
F#|-------------------------------11-9-----9--11---11b--11b---11b--11b--9--|
C#|------------------------------------11----------------------------------|
G#|------------------------------------------------------------------------|
D#|------------------------------------------------------------------------|

end
d#|------|
A#|------|
F#|------|
C#|-4-4--|
G#|-4-4--|
D#|-2-2--|
Tap to rate this tab
# A B C D E F G H I J K L M N O P Q R S T U V W X Y Z