Song name
# A B C D E F G H I J K L M N O P Q R S T U V W X Y Z

Saxon - Big Teaser tab

Intro
---------------------------|
---------------------------|
-----7-----5-----7---------|
-----7-----5-----7-----5---|
-0-0-5-0-0-3-0-0-5-0-0-3---|
---------------------------|a few times

-----------------------|
-----------------------|
----9--9-7---9--9-7----|
----9--9-7---9--9-7----|
----7--7-5---7--7-5----|
-----------------------|

Verse:
--------------------------------------------|
--------------------------------------------|
-9----7----2----5--------9----7----2----5---|
-9----7----2----5--------9----7----2----5---|
--------------------------------------------|
--------------------------------------------|

-----------------------|
-----------------------|
----9--9-7---9--9-7----|
----9--9-7---9--9-7----|
----7--7-5---7--7-5----|
-----------------------|

-----------------------|
-----------------------|
----9--9-7---9--9-7----|
----9--9-7---9--9-7----|
----7--7-5---7--7-5----|
-----------------------|

Bridge:
-----------------------------------|
-----------------------------------|
-----------------------------------|
-5-------7--------9--------12------|
-3-------5--------7--------10------|
-----------------------------------|

Chorus:
-----------------------------|
-----------------------------|
-----------------------------|
-5----7--7----7--x--7--x-7---|
-3----5--5----5--x--5--x-5---|
-----------------------------|Only on first time.

-----------------------------|
-----------------------------|
-----------------------------|
-7----7--7----7--x--7--x-7---|
-5----5--5----5--x--5--x-5---|
-----------------------------|then continue the chorus only playing this
                               version of the riff.


I'm not sure about the harmony part, but I'll post it later when I figure it out.
Tap to rate this tab
# A B C D E F G H I J K L M N O P Q R S T U V W X Y Z