Song name
# A B C D E F G H I J K L M N O P Q R S T U V W X Y Z

Saxon - Power And The Glory tab

Opening

Guitar 1
--------------------------------------------|
--------------------------------------------|
----------4---5---4---5~------4---5---7--5~-|
----------4---5---4---5~------4---5---7--5~-|
-12/--0-0---0---0---0-----0-0---0---0-------|
--------------------------------------------|
      . .   .   .   .     . .   .   .
Guitar 2 (come in after guitar 1 plays above riff 2x)
---------------------------------------------|
---------------------------------------------|
---------------------------------------------|
---------------------------------------------|
-0-0-0-0-0-0-0-0-0-0-0-0-0-0-0-0-0-0-0-0-0-0-|
---------------------------------------------|
 . . . . . . . . . . . . . . . . . . . . . .
after guitar 2 plays this riff 2x, both guitars harmonize guitar 1s riff 1x then guitar 1 plays:
--------------------------------------|
-----5h8p5------5h8p5-----5h8p5-------|
-7b9-------7b9--------7b9-------------|
---------------------------------7~---|
--------------------------------------|
--------------------------------------|

Verse (both guitars)
-------------------------------------------------------------------------|
---------------------------------------4-5--2-4--0-2------4-5--2-4--0-2--|
-5------5/7--7---5-------5/7--7------2---------------2-2-----------------|
-5------5/7--7---5-------5/7--7------2---------------2-2-----------------|
-3------3/5--5---3-------3/5--5------0---------------0-0-----------------|
-----------------------------------------------------------------------\-|
          .  .             .  .
For the verse, every third time they play this
-------------------------------------------------------------------------|
-----------------------------------------4-5--2-4--0-2-----4-5--2-4--0-2-|
-9----9----9----9-9-9----9----9----9-9-2---------------2-2---------------|
-9----9----9----9-9-9----9----9----9-9-2---------------2-2---------------|
-7-77-7-77-7-77-7-7-7-77-7-77-7-77-7-7-0---------------0-0---------------|
-------------------------------------------------------------------------|
   ..   ..   ..       ..        ..
Chorus

Guitar 1
--------------------------------|
----------------------8---------|
--------------5b7-----------5b7-|
-3----5-------------------------|
-3----5-------------------------|
-1----3-------------------------|

Guitar 2
-------------------------------|
-------------------------------|
-------------------------------|
-3----5----7-------------------|
-3----5----7-------------------|
-1----3----5-------------------|
Tap to rate this tab
# A B C D E F G H I J K L M N O P Q R S T U V W X Y Z