Song name
# A B C D E F G H I J K L M N O P Q R S T U V W X Y Z

Saxon - Do It All For You tab

Saxon - Do it all for You

Ive listened to the song and had a go at working it out for you.

Intro - Lead (put lots of vibrato on the end notes of the licks/riffs)
E|--------------------|    |----7--7h8p7------10b--|
B|--------------------|    |--10----------10-------|
G|---4--4h5p4-----7b--| or |-9---------------------| 
D|--7----------7------|    |-----------------------|
A|-7------------------|    |-----------------------|
E|--------------------|    |-----------------------|

Do the bend again on the last time and let ring.

                           If you like Iron Maiden here's a harmony - intro
                           Play 7 on E string when the last F5 plays then
Intro - Rhythm             Play 10 on the B string when the final A5 plays
E|-----------------|       |-------------------|
B|-----------------|       |---7--7h8p7----10--|
G|-----------------|       |--9----------9-----|
D|-----------------|       |-9-----------------|
A|-7---5---3---5---|       |-------------------|
E|-5---3---1---3---|       |-------------------|
   A5  G5  F5  G5

End on A5 (skipping the G5)

0:30
Picking
E|-3---2---0---0---2-3---2---0---0---2-3---2---0---0---2-3---2---0---0---|
B|--3---3---3---------3---3---3---------1---1---1---------1---1---1------|
G|---2---2---2---------2---2---2---------0---0---0---------0---0---0-----|
D|-----------------------------------------------------------------------|
A|-----------------------------------------------------------------------|
E|-----------------------------------------------------------------------|
   D5                                  C5  

1:21
E|--------------------------------------------------|
B|--------------------------------------------------|
G|--------------------------------------------------|
D|--------------------------------------------------| all Palm Muted
A|-7-7-7-7-7-7-5-5-5-5-5-5-3-3-3-3-3-3-5-5-5-5-5-5--|
E|-5-5-5-5-5-5-3-3-3-3-3-3-1-1-1-1-1-1-3-3-3-3-3-3--|

E|--------------------------------------------------|
B|--------------------------------------------------|
G|--------------------------------------------------|
D|--------------------------------------------------| all Palm Muted
A|-7-7-7-7-7-7-5-5-5-5-5-5-3------------------------|
E|-5-5-5-5-5-5-3-3-3-3-3-3-1------------------------|

1:33
E|-----------------------|    |--------------------------------------|
B|-----------------------|    |--------------------------------------|
G|-----------------------|    |--------------------------------------|
D|-----------------------| x3 |--------------------------------------| x1
A|-10-------10-------12--|    |-10-------10-------7-7-7-7-7-7-7-7-7--|
E|-8--------7--------10--|    |-8--------7--------5-5-5-5-5-5-5-5-5--|
   C5       C/B      D5         C5       C/B      A5

Part of the riff in the chorus = play A5 and B5 before each C5 chord

1:59
Picking + D5 and C5 powerchords (as shown at 0:30)

2:44
Play whats shown at 1:21

2:55 - Chorus
Play whats shown at 1:33 (Chorus chords)
On 4th time end on D5

3:20 - Solo
Play whats shown at 1:33 (Chorus chords) 
On 4th time end on D5

3:45 - Chorus
Play whats shown at 1:33 (Chorus Chords)

4:10
Play the intro riff, with A5, G5 & F5 chords
The riff is played for a total of 8 times. End on A5.

Hope this helps m8 and to anyone who wants to learn this song. Hope its clear to 
follow. You can always shred in Am (pentatonic), sounds insane!
Tap to rate this tab
 
# A B C D E F G H I J K L M N O P Q R S T U V W X Y Z