Song name
# A B C D E F G H I J K L M N O P Q R S T U V W X Y Z

Saxon - Hammer Of The Gods tab

-------------------------------------------------------------------------------
                             SONG NAME - Band Name
-------------------------------------------------------------------------------
Tabbed by:
Email:

Tuning:Eb Ab Db Gb Bb eb
(INTRO)X4
e|----------------------------------------------------------------------------|
B|-15--15--------13--13--13---------------------------------------------------|
G|-14--14--14----14--14--14---12-12---12--12--12----------12-12---------------|
D|-16--16--14----15--15--15---12-12---10--10--9------10---10-9----------------|
A|---00--00--0000--00--00---------------00--00---00--8--00--------------------|
E|----------------------------------------------------------------------------|

e|----------------------------------------------------------------------------|
B|----------------------------------------------------------------------------|
G|-----------3-----------5-----------3-----------2---3------------------------|
D|-----------3-----------5-----------3-----------2---3------------------------|
A|-5p3h5-3-5---5p3h5-3-5---5p3h5-3-5---5p3h5-3-5---5--------------------------|
E|----------------------------------------------------------------------------|

e|----------------------------------------------------------------------------|
B|----------------------------------------------------------------------------|
G|--------3~-------------5~---------------3~-------------5~-------------------|
D|--------3~-------------5~---------------3~-------------5~-------------------|
A|--5-3-5----------5-3-5------------5-3-5----------5-3-5----------------------|
E|----------------------------------------------------------------------------|

e|----------------------------------------------------------------------------|
B|----------------------------------------------------------------------------|
G|--------3~-------------5~---------------3~-------------2~-------1-----------|
D|--------3~-------------5~---------------3~-------------2~-------1-----------|
A|--5-3-5----------5-3-5------------5-3-5----------5-3-5----5-3-5-------------|
E|----------------------------------------------------------------------------|

(x2)
e|---------------------------------------------------------------------------|
B|---------------------------------------------------------------------------|
G|--9---9---9/7---7/9---9---9------------------------------------------------|
D|--7---7---7/5---5/7---7---7----9----7--------------------------------------|
A|---000-000----0--------000-000-10-0-8--------------------------------------|
E|---------------------------------------------------------------------------|

Chorus x2
e|----------------------------------------------------------------------------|
B|-15--15--------13--13--13---------------------------------------------------|
G|-14--14--14----14--14--14---12-12---12--12--12----------12-12---------------|
D|-16--16--14----15--15--15---12-12---10--10--9------10---10-9----------------|
A|---00--00--0000--00--00---------------00--00---00--8--00--------------------|
E|----------------------------------------------------------------------------|

e|----------------------------------------------------------------------------|
B|-15--15--------13--13--13---------------------------------------------------|
G|-14--14--14----14--14--14---12-12---12--12--12----------12-12---------------|
D|-16--16--14----15--15--15---12-12---10--10--9------10---10-9----------------|
A|---00--00--0000--00--00---------------00--00---00--8--00--------------------|
E|----------------------------------------------------------------------------|

x4
e|---------------------------------------------------------------------------|
B|---------------------------------------------------------------------------|
G|---------------------------------------------------------------------------|
D|---------------------------------------------------------------------------|
A|------14-14-----------12-12---------10-10---10-10---------12-12-----12-12--|
E|-12-12-----12-12-10-10-----10-10-8-8-----8-8-----8-8-10-10-----10-10-------|

e|----------------------------------------------------------------------------|
B|----------------------------------------------------------------------------|
G|--------3~-------------5~---------------3~-------------5~-------------------|
D|--------3~-------------5~---------------3~-------------5~-------------------|
A|--5-3-5----------5-3-5------------5-3-5----------5-3-5----------------------|
E|----------------------------------------------------------------------------|

e|----------------------------------------------------------------------------|
B|----------------------------------------------------------------------------|
G|--------3~-------------5~---------------3~-------------2~-------1-----------|
D|--------3~-------------5~---------------3~-------------2~-------1-----------|
A|--5-3-5----------5-3-5------------5-3-5----------5-3-5----5-3-5-------------|
E|----------------------------------------------------------------------------|

(x2)
e|---------------------------------------------------------------------------|
B|---------------------------------------------------------------------------|
G|--9---9---9/7---7/9---9---9------------------------------------------------|
D|--7---7---7/5---5/7---7---7----9----7--------------------------------------|
A|---000-000----0--------000-000-10-0-8--------------------------------------|
E|---------------------------------------------------------------------------|

CHORUS

************************************

| /   slide up
| \   slide down
| h   hammer-on
| p   pull-off
| ~   vibrato
| +   harmonic
| x   Mute note
| b   Bend
| pb  Pre-bend
| br  Bend release
| pbr Pre-bend release
| brb Bend release bend

************************************
Tap to rate this tab
# A B C D E F G H I J K L M N O P Q R S T U V W X Y Z