Song name
# A B C D E F G H I J K L M N O P Q R S T U V W X Y Z

Saxon - Till Hell Freezes Over tab

Help us improve GuitareTab! Take a short survey!
I looked for this tab a long time and eventually I found it myself. It's only the intro 
verse (it's the same). I can't figure out the rest of the song. So here it goes

E|-------------------------|
B|-------------------------|
G|----9----7-----9----7--9-|
D|------7--7-------7--7--9-|
A|-0----------0------------|
E|-------------------------|

You just keep on repeating this little thing, untill you have the bridge. I think it 
like this.

E|-----------|
B|-----------|
G|--9--7--9--|
D|-----------|
A|-----------|
E|-----------|

If you have any corrections or advises, then you can mail them to this adress: jean.cobbe@gmail.com
Have fun with this song!
Related for Till Hell Freezes Over tab