Song name
# A B C D E F G H I J K L M N O P Q R S T U V W X Y Z

Saxon - Rock And Roll Gypsy tab

Normally saxon songs are played with the tuning eb Bb Gb Db Ab Eb, (down half a step, i 
but i played this with the actual song and im not sure, i am pretty certain its atndard 
Anyway, enough rambling, here it is, please rate and corrections are more than welcome.
             Standard Tuning.

e-----------------------------------------|
b-----------------------------------------|
g-------9-------7-------6-------7---------|      x2
d---7---7----7--7----7--7----7--7---------|
a-0--------0-------0-------0--------------|
E-----------------------------------------|


e--12b---12-10----------------------------|
b----------------12-12-10-12-12b-10-------|
g-----------------------------------------|
d-----------------------------------------|
a-----------------------------------------|
E-----------------------------------------|

e-----------------------------------------------------|
b-----------------------------------------------------|
g-------9-------7-------6-------7---------------------|
d---7---7----7--7----7--7----7--7---------------------|
a-0--------0-------0-------0----------0-0-0-0-5-0-0-0-|
E-----------------------------------------------------|

there are two guitars and these parts sort of "overlap" so listen to the song to hear how it works.

e-----------------------------------------------------|
b-----------------------------------------------------|
g-------9-------7-------6-------7---------------------|
d---7---7----7--7----7--7----7--7---------------------|
a-0--------0-------0-------0----------0-0-0-0-5-0-0-0-|
E-----------------------------------------------------|

 verse
e-----------------------------------------|
b-----------------------------------------|
g-------9-------7-------6-------7---------|      x2
d---7---7----7--7----7--7----7--7---------|
a-0--------0-------0-------0--------------|
E-----------------------------------------|


e-----------------------------------------|
b------10--------8-------7-----8----------|
g----7-7-------7-7-----7-7---7-7----------|
d--0---------0-------0-----0--------------|      x2
a-----------------------------------------|
E-----------------------------------------|

Chorus x2

e-----------------------------------------|
b-----------------------------------------|
g---9-9--7--9-9---7-----------------------|
d---9-9--7--9-9---7--5--5-5---------------|
a---7-7--5--7-7---5--5--5-5---------------|
E--------------------3--3-3---------------|


e-----------------------------------------|
b-----------------------------------------|
g---9-9--7--9-9----------7-----5----------|
d---9-9--7--9-9--------7-----5------------|
a---7-7--5--7-7------5-----3--------------|
E-----------------------------------------|

verse
e-----------------------------------------|
b-----------------------------------------|
g-------9-------7-------6-------7---------|      x2
d---7---7----7--7----7--7----7--7---------|
a-0--------0-------0-------0--------------|
E-----------------------------------------|


e-----------------------------------------|
b------10--------8-------7-----8----------|
g----7-7-------7-7-----7-7---7-7----------|
d--0---------0-------0-----0--------------|      x2
a-----------------------------------------|
E-----------------------------------------|

chorus

then
e-----------------------------------------|
b-----------------------------------------|
g---5---7---5-5---7-7---------------------|     x2
d---5---7---5-5---7-7---------------------|
a---3---5---3-3---5-5---------------------|
E-----------------------------------------|

e------------------------------------------|
b------------------------------------------|
g---12--14--12--12---14--14----------------|     x2
d---12--14--12--12---14--14----------------|
a---10--12--10--10---12--12----------------|
E------------------------------------------|


e-----------------------------------------|
b------10--------8-------7-----8----------|
g----7-7-------7-7-----7-7---7-7----------|
d--0---------0-------0-----0--------------|      x2
a-----------------------------------------|
E-----------------------------------------|

guitar solo
"i dont know the solo, i am not very good at working out complecated solos so just 
your own or correct this by adding the solo in.

the rythm for the solo is the same as is played for the verse then after the "verse" has 
played the chorus is played until the end of the solo.


then back to
verse
chorus until finnish the final note is.

e--------------------------------------|
b--------------------------------------|
g--------------------------------------|
d----7---------------------------------|
a----7---------------------------------|
E----5---------------------------------|

And thats pretty much it, phew took longer to tab than i thought. have fun tis a good 
but was one of the few not tabbed already so i thought id do it myself and there you go, 
rate, along with my other tabs (i have only done three) and remember if in doubt use backspin
Dan.
Tap to rate this tab
 
# A B C D E F G H I J K L M N O P Q R S T U V W X Y Z