Song name
# A B C D E F G H I J K L M N O P Q R S T U V W X Y Z

Saxon - Crusader tab

Help us improve GuitareTab! Take a short survey!
the first tab i made,its quite easy to play.

E|-0-----0--------|-----------------|----------------|----------------|
B|------------3---|--3-----3-3-----3|-----1-----1----|-1-3-----1-----0|
G|---2----2-----2-|----2-------2----|-2-----2-----2--|-----2-----2----|
D|-----2----2-----|2-----2-------2--|---2-----2-----2|-------2-----2--|
A|----------------|-----------------|----------------|----------------|
E|----------------|-----------------|----------------|----------------|

E|----------------|-----------------|----------------|----------------|
B|-----0-----2-1--|---0-----2-------|----------------|----------------|
G|-0-----0-------0|-----0---2-------|----------------|----------------|
D|---2-----2------|-2-----2---------|----------------|----------------|
A|----------------|-----------------|----------------|----------------|
E|----------------|-----------------|----------------|----------------|

E|-0-----0--------|-----------------|----------------|----------------|
B|------------3---|--3-----3-3-----3|-----1-----1----|-1-3-----1-----0|
G|---2----2-----2-|----2-------2----|-2-----2-----2--|-----2-----2----|
D|-----2----2-----|2-----2-------2--|---2-----2-----2|-------2-----2--|
A|----------------|-----------------|----------------|----------------|
E|----------------|-----------------|----------------|----------------|

E|----------------|-----------------|----------------|----------------|
B|-----0-----2----|-----------------|----------------|----------------|
G|-0-----0--------|-----------------|----------------|----------------|
D|---2-----2----5-|4-2--------------|----------------|----------------|
A|--------------3-|2-0--------------|----------------|----------------|
E|----------------|-----------------|----------------|----------------|

maybe im gonna add the rest later.
Related for Crusader tab