Guitaretab - guitar tabs
Song name
# A B C D E F G H I J K L M N O P Q R S T U V W X Y Z

Saxon - Jack Tars tab

It is likely that the tuning for this song is actually half a tone down from Standard, 
tab however, can be played along with the CD but still in standard tuning.


e|---------------------------------------------------------------------------|
B|-2----2-----2-----2-----5-----5--------------------------------------------|
G|----1----1-----2-----2-----4-----4---------6-------------------------------|
D|----------------------------------------6----------------------------------|
A|------------------------------------/9-------------------------------------|
E|-1----------2-----------4--------------------------------------------------|

e|---------------------------------------------------------------------------|
B|----------------------------------2--2-------------------------------------|
G|-6-----6-----------------------2-----1-------------------------------------|
D|-4--7-----7--------4--------4----------------------------------------------|
A|----------------6-----6--4-------------------------------------------------|
E|-------------4-----------------------1-------------------------------------|

e|---------------------------------------------------------------------------|
B|-2----2-----2-----2-----5-----5--------------------------------------------|
G|----1----1-----2-----2-----4-----4---------6-------------------------------|
D|----------------------------------------6----------------------------------|
A|------------------------------------/9-------------------------------------|
E|-1----------2-----------4--------------------------------------------------|

e|---------------------------------------------------------------------------|
B|----------------------------------2--2-------------------------------------|
G|-6-----6-----------------------2-----1-------------------------------------|
D|-4--7-----7--------4--------4----------------------------------------------|
A|----------------6-----6--4-------------------------------------------------|
E|-------------4-----------------------1-------------------------------------|
[ Tab from: http://www.guitaretab.com/s/saxon/98260.html ]
e|---------------------------------------------------------------------------|
B|-2----2-----2-----2-----5-----5--------------------------------------------|
G|----1----1-----2-----2-----4-----4---------6-------------------------------|
D|----------------------------------------6----------------------------------|
A|------------------------------------/9-------------------------------------|
E|-1----------2-----------4--------------------------------------------------|

e|---------------------------------------------------------------------------|
B|----------------------------------2--2-------------------------------------|
G|-6-----6-----------------------2-------------------------------------------|
D|-4--7-----7--------4--------4--------4-------------------------------------|
A|----------------6-----6--4-------------------------------------------------|
E|-------------4-------------------------------------------------------------|

e|---------------------------------------------------------------------------|
B|-2----2-----2-----2-----5-----5--------------------------------------------|
G|----1----1-----2-----2-----4-----4---------6-------------------------------|
D|----------------------------------------6----------------------------------|
A|------------------------------------/9-------------------------------------|
E|-1----------2-----------4--------------------------------------------------|


e|---------------------------------------------------------------------------|
B|----------------------------------2--2-------------------------------------|
G|-6-----6-----------------------2-----1-------------------------------------|
D|-4--7-----7--------4--------4----------------------------------------------|
A|----------------6-----6--4-------------------------------------------------|
E|-------------4-----------------------1-------------------------------------|




e|---------------------------------------------------------------------------|
B|-2----2-----2-----2-----5-----5--------------------------------------------|
G|----1----1-----2-----2-----4-----4---------6-------------------------------|
D|----------------------------------------6----------------------------------|
A|------------------------------------/9-------------------------------------|
E|-1----------2-----------4--------------------------------------------------|

e|---------------------------------------------------------------------------|
B|----------------------------------2--2-------------------------------------|
G|-6-----6-----------------------2-------------------------------------------|
D|-4--7-----7--------4--------4--------4-------------------------------------|
A|----------------6-----6--4-------------------------------------------------|
E|-------------4-------------------------------------------------------------|
Related for Jack Tars tab
Advertisement will be closed in 10 seconds