Song name
# A B C D E F G H I J K L M N O P Q R S T U V W X Y Z

Say Anything - Shiksa Girlfriend tab

Taken right from PlaySA.net
There's a video of Jeff (guitarist) instructing how to play it.

Standard Tuning 



i remember it vividly love...

jake guitar
|--5---------------|
|--------5---------|
|----5-----5-------|  x repeat as needed
|------------------|
|------3-----3-----|
|------------------|

synth
|---------5--------------8-7----|
|-------8---5----------------8--|
|-7-5------------7-5------------|
|-----7---------------7---------|
|-------------------------------|
|-------------------------------|

caught your eye....
jeff guitar
|---------------------------------------------|
|---------------------------------------------|
|-5-5-5-5-5-4-4-/9\4---5-5-5-5-5--4-5-4/2p0---|
|-5-5-5-5-5------------5-5-5-5-5--------------|
|-x-x-x-x-x------------x-x-x-x-x--------------|
|-5-5-5-5-5------------5-5-5-5-5--------------|


hebraic neuroses ceased to be...

jake guitar
|--5---------------|
|--------5---------|
|----5-----5-------|  x repeat as needed
|------------------|
|------3-----3-----|
|------------------|

synth
|---------5--------------8-7-8-10--|
|-------8---5----------------------|
|-7-5------------7-5---------------|
|-----7---------------7------------|
|----------------------------------|
|----------------------------------|

attractive to me... is divine
jeff guitar
|-3-3-3-3-3-3-3-3-3-3-3-3-----|
|-x-x-x-x-x-x-x-x-x-x-x-x-----|
|-5-5-5-5-5-5-5-5-5-5-5-5--5--|
|-3-3-3-3-3-3-3-3-3-3-3-3--x--|
|--------------------------5--|
|--------------------------3--|

Chorus:And even if your friends don't understand...
(figure out the strumming from video)
jeff guitar
|----------------------------|
|-----5--5-5-5-3--5--5-5-5-6-|
|-----5--5-5-5-5--5--5-5-5-5-|
|-5---x--x-x-x-x--x--x-x-x-x-|
|-3---5--5-5-5-5--5--5-5-5-5-|
|-1--------------------------|


i'll need new contraceptives...
jake guitar
|--5---------------|
|--------5---------|
|----5-----5-------|  same both times 
|------------------| 
|------3-----3-----|
|------------------|

synth
|--------|---8-7----|
|--------|------8---|
|-7-6----|----------|
|-----7--|----------|
|--------|----------|
|--------|----------|

jeff guitar
|--------------------------|--------------------------|
|--------------------------|--------------------------|
|-9-9-9-9-12-12-12-12------|--14-14-14-14-12-12-12-12-|
|-x-x-x-x--x--x--x--x------|---x--x--x--x--x--x--x--x-|
|-7-7-7-7-10-10-10-10------|--12-12-12-12-10-10-10-10-|
|--------------------------|--------------------------|

spent the night...
jeff guitar
|---------------------------------------------|
|---------------------------------------------|
|-5-5-5-5-5-4-4-/9\4---5-5-5-5-5--4-5-4/2p0---|
|-5-5-5-5-5------------5-5-5-5-5--------------|
|-x-x-x-x-x------------x-x-x-x-x--------------|
|-5-5-5-5-5------------5-5-5-5-5--------------|

like the yin and the yang of the afikomen...
synth
|-----------5------|
|-----5-6-8--------|
|-5-7---------5-7--|
|------------------|
|------------------|
|------------------|

jake guitar
|--5---------------|
|--------5---------|
|----5-----5-------|  x3
|------------------| 
|------3-----3-----|
|------------------|

You're the omen...
jeff guitar
|----------------------------------------------|
|----------------------------------------------|
|-9-9-9-9-12-12-12-12--17-17-17-17-16-16-16-16-|
|-x-x-x-x--x--x--x--x---x--x--x--x--x--x--x--x-|
|-7-7-7-7-10-10-10-10--15-15-15-15-14-14-14-14-|
|----------------------------------------------|

that all has changed...
|-3------|
|-x------|
|-5--4---|
|-3--x---|
|----2---|
|--------|

i'll need new contraceptives...
jake guitar
|--5---------------|
|--------5---------|
|----5-----5-------|  same both times 
|------------------| 
|------3-----3-----|
|------------------|

synth
|--------|---8-7----|
|--------|------8---|
|-7-6----|----------|
|-----7--|----------|
|--------|----------|
|--------|----------|

jeff guitar
|--------------------------|--------------------------|
|--------------------------|--------------------------|
|-9-9-9-9-12-12-12-12------|--14-14-14-14-12-12-12-12-|
|-x-x-x-x--x--x--x--x------|---x--x--x--x--x--x--x--x-|
|-7-7-7-7-10-10-10-10------|--12-12-12-12-10-10-10-10-|
|--------------------------|--------------------------|

spent the night...
jeff guitar
|---------------------------------------------|
|---------------------------------------------|
|-5-5-5-5-5-4-4-/9\4---5-5-5-5-5--4-5-4/2p0---|
|-5-5-5-5-5------------5-5-5-5-5--------------|
|-x-x-x-x-x------------x-x-x-x-x--------------|
|-5-5-5-5-5------------5-5-5-5-5--------------|

like the yin and the yang of the afikomen...
synth
|-----------5------|
|-----5-6-8--------|
|-5-7---------5-7--|
|------------------|
|------------------|
|------------------|

jake guitar
|--5---------------|
|--------5---------|
|----5-----5-------|  x3
|------------------| 
|------3-----3-----|
|------------------|

You're the omen...
jeff guitar
|----------------------------------------------|
|----------------------------------------------|
|-9-9-9-9-12-12-12-12--17-17-17-17-16-16-16-16-|
|-x-x-x-x--x--x--x--x---x--x--x--x--x--x--x--x-|
|-7-7-7-7-10-10-10-10--15-15-15-15-14-14-14-14-|
|----------------------------------------------|

that all has changed...
|-3------|
|-x------|
|-5--4---|
|-3--x---|
|----2---|
|--------|



solo

jake guitar
|----------------------------------------------|
|----------------------------------------------|
|-/14-12-16-17--(17)/9---9h10p9---------9-10---|
|-------------------------------12-10-9--------|
|----------------------------------------------|
|----------------------------------------------|

this part has some effects towards the end... probably wah pedel or something
|--------------------------------------------------------|
|-----------------------------------------------5--5-5---|
|-14-12-10-9--17-16-14-12-/14\-/12\-/10\-/9--\5-5--5-5---|
|--x--x-x--x---x--x--x--x--------------------------5-5---|
|-12-10-8--7--15-14-12-10--------------------------------|
|--------------------------------------------------------|

jeff rhythm
|----------------------------|
|-----5--5-5-5-3--5--5-5-5-6-|
|-----5--5-5-5-5--5--5-5-5-5-|
|-5---x--x-x-x-x--x--x-x-x-x-|
|-3---5--5-5-5-5--5--5-5-5-5-|
|-1--------------------------|

and even if a...
|----------------------------|
|-----5--5-5-5-3--5--5-5-5-6-|
|-----5--5-5-5-5--5--5-5-5-5-|
|-5---x--x-x-x-x--x--x-x-x-x-|
|-3---5--5-5-5-5--5--5-5-5-5-|
|-1--------------------------|

|-----0------------------------|
|-------------5--5-5-5-3--5\---|
|-------------5--5-5-5-5--5\---|
|-5-5---x4----x--x-x-x-x--x----|
|-3-3---------5--5-5-5-5--5\---|
|-1-1--------------------------|


and even if you fear...

??? guitar
|----------------|
|----------------|
|----7-9-10-12\--|
|-5--x-x-x--x----|
|-3--5-7-8--10\--|
|-1--------------|

jeff guitar
|-----------------------------------------------------------------|
|----5------------------------------------------------------------|
|----5------5-5-7-7------7-7-5-5------5-5-7-7------7p5p0---7p5p0--|
|-5--x------------------------------------------------------------|
|-3--5----6-----------8------------6-----------8------------------|
|-1-----4-----------6------------4-----------6--------------------|

girlfriend now....
|--------------------------------------|
|----5p0--------0----5-5-5-5-5---------|
|-----------------0--5-5-5-5-5--4-4-0--|
|--------5----0------3-3-3-3-3---------|
|-3------------------------------------|
|-----------3--------------------------|

|-------------------------------------------|
|----5p0----------0----5-5-5-5-5------------|
|---------------0------5-5-5-5-5--4-4p0-4p0-|
|--------5----0--------3-3-3-3-3------------|
|-3-----------------------------------------|
|-----------3-------------------------------|

|--------------------------------------|
|----5p0--------0----5-5-5-5-5---------|
|-----------------0--5-5-5-5-5--4-4-0--|
|--------5----0------3-3-3-3-3---------|
|-3------------------------------------|
|-----------3--------------------------|
				   v - natural harmonic
|---------------------------------/[12]-|
|----5p0----------0---------------/[12]-|
|---------------0-----------------/[12]-|
|--------5----0----------------3--/x----|
|-3--------------------3-3-3-3-3--/x----|
|-----------3----------0-0-0-0-1--/x----|

|------------------------------------------|
|----5p0--------0----5-5-5-5-5-------------|
|-----------------0--5-5-5-5-5--4-4p0-4p0--|
|--------5----0------3-3-3-3-3-------------|
|-3----------------------------------------|
|-----------3------------------------------|

|-------------------------------------------|
|----5p0----------0----5-5-5-5-5------------|
|---------------0------5-5-5-5-5--4-4p0-4p0-|
|--------5----0--------3-3-3-3-3------------|
|-3-----------------------------------------|
|-----------3-------------------------------|

|------------------------------|
|------------------5-5-5-------|
|-----4-5-----5----5-5-5-4-4-0-|
|---5-------5---0--3-3-3-------|
|------------------------------|
|-5-------0--------------------|

|------------------------|
|----5p0--------0----5-5-|
|-----------------0--5-5-|
|--------5----0------3-3-|
|-3----------------------|
|-----------3------------|

|--------------------------|
|----5p0--------0----5-5-5-|
|-----------------0--5-5-5-|
|--------5----0------3-3-3-|
|-3------------------------|
|-----------3--------------|


Tap to rate this tab
 
# A B C D E F G H I J K L M N O P Q R S T U V W X Y Z