Song name
# A B C D E F G H I J K L M N O P Q R S T U V W X Y Z

Say Anything - About Falling Acoustic tab

Help us improve GuitareTab! Take a short survey!
Artist: Say Anything
Song: About Falling (Acoustic)
Album: Defense Of The Genre
Tuning: Half-Step Down

Bit's 'n pieces are wrong, but I got as close as I could, especially in the interlude part.

here's the video:http://www.youtube.com/watch?v=ipfTxhGoEWU

Intro:
|----------------------------------------------------------------|
|----5-------5-------5-------------------------------------------|
|------7-------7-------7---7-7-7-------5-5-5-4-4-----------------|
|--------------------------------7-7-7-5-5-5-5-5-5-5-5-5-5-5-5-5-| x2
|3-3-----3-3-----3-3-----3/5-5-5-7-7-7-x-x-x-x-x-2-2-2-2-2-5-5-5-|
|3-3-----3-3-----3-3-----3/5-5-5-5-5-5-5-5-5-5-5-0-0-0-0-0-3-3-3-|

Verse:
|----------------------------------------------------------------|
|----------------------------------------------------------------|
|5-4-5-4-5-4-2-0-------------------------------------------7-7-7-|
|5-5-5-5-5-5-----4-4-4-4-4---5---4-0---4-5-0---5-7-0---7/9-9-9-9-| x2
|x-x-x-x-x-x-----2-2-2-2-2-2-2-2-----0-------0-------0-----0-0-0-|
|5-5-5-5-5-5-----0-0-0-0-0-0-0-0---------------------------------|

Pre-Chorus:
|--------------------------------|
|--------------------------------|
|7---7---7---x-7-x-7-x-7-7---x---|
|5---5---5---x-5-x-5-x-5-5---x---| x2
|3---5---7---x-3-x-5-x-7-7---x---|
|--------------------------------|

Chorus:
|----------------------------------------------------------------|
|----------------------------------------------------------------|
|5-4-5-4-5-4-2-0-------------------------------------------7-7-7-|
|5-5-5-5-5-5-----4-4-4-4-4---5---4-0---4-5-0---5-7-0---7/9-9-9-9-|
|x-x-x-x-x-x-----2-2-2-2-2-2-2-2-----0-------0-------0-----0-0-0-|
|5-5-5-5-5-5-----0-0-0-0-0-0-0-0---------------------------------|

|----------------------------------------------------------------|
|----------------------------------------------------------------|
|5-4-5-4-5/7-5-4-------------------------------------------7-7-7-|
|5-5-5-5-5-------4-4-4-4-4---5---4-0---4-5-0---5-7-0---7/9-9-9-9-|
|x-x-x-x-x-------2-2-2-2-2-2-2-2-----0-------0-------0-----0-0-0-|
|5-5-5-5-5-------0-0-0-0-0-0-0-0---------------------------------|

Verse:
|------------------------------------------------------------------|
|----------------------------------------------------0-0--0--0--0--|
|5---x---x-5-----------------0-0---x-0-0---x-0-0---x-0-0--0--0--0--|
|5---x---x-5-5-5---x---x---5-4-4---x-4-4---x-4-4---x-4-9--9--9--9--|
|x---x---x-x-2-2---x---x---2-5-5---x-5-5---x-5-5---x-5-10-10-10-10-|
|5---x---x-5-0-0---x---x---0---------------------------------------|

|--------------------------------------------------------------------|
|--------------------------------------------------------------------|
|5---5-5-5-5-5-5-----------------------------------------------------|
|5---5-5-5-5-5-5-5-5-5-5-5-5-5-5-4-4-4-4-5-5-5-5-7-7-7-7-9--9--9--9--|
|x---x-x-x-x-x-x-2-2-2-2-2-2-2-2-5-5-5-5-7-7-7-7-9-9-9-9-10-10-10-10-|
|5---5-5-5-5-5-5-0-0-0-0-0-0-0-0-------------------------------------|
     . . . . . . . . . . . . . . . . . . . . . . . . . . . . .

Pre-Chorus:
|--------------------------------|
|--------------------------------|
|7---7---7---x-7-x-7-x-7-7---x---|
|5---5---5---x-5-x-5-x-5-5---x---| x2
|3---5---7---x-3-x-5-x-7-7---x---|
|--------------------------------|

Chorus:
|----------------------------------------------------------------|
|----5-------5-------5-------------------------------------------|
|------7-------7-------7---7-7-7-------5-5-5-4-4-----------------|
|--------------------------------7-7-7-5-5-5-5-5-5-5-5-5-5-5-5-5-| x4
|3-3-----3-3-----3-3-----3/5-5-5-7-7-7-x-x-x-x-x-2-2-2-2-2-5-5-5-|
|3-3-----3-3-----3-3-----3/5-5-5-5-5-5-5-5-5-5-5-0-0-0-0-0-3-3-3-|

(In the video, around 1:51, it cuts out a little bit, throwing the strumming off, but 
is what he means to do,
so play it, but get back on track by listening to it.)

Interlude: this is iffy but sounds close
|-----------------------|
|-----------------------|
|-----------------------|
|5-5-4---5-4-5-/7-5-4---|
|5-5-5-5-7-7-3----3---5-|
|3-3-3-3-----3----3---3-|

|-----------------------------|
|-----------------------------|
|-----------------------------|
|5-5-4---5-4-5---7---/9---5-4-|
|5-5-5-5-7-7-3-3-3-3--7-3-3-3-|
|3-3-3-3-----3-3-3-3--7-3-3-3-|

|-----------------------|
|-----------------------|
|-----------------------|
|5-5-4---5-4-5-/7-5-4---|
|5-5-5-5-7-7-3----3---5-|
|3-3-3-3-----3----3---3-|

|------------------------------|
|------------------------------|
|----------------------------5-|
|5-5-4---5-5-4-4-7-7-7-5-5-5-5-|
|5-5-5-5-7-7-7-7-5-5-5-3-3-3-3-|
|3-3-3-3---------5-5-5-3-3-3-3-|

Chorus:
|----------------------------------------------------------------|
|----5-------5-------5-------------------------------------------|
|------7-------7-------7---7-7-7-------5-5-5-4-4-----------------|
|--------------------------------7-7-7-5-5-5-5-5-5-5-5-5-5-5-5-5-| x4
|3-3-----3-3-----3-3-----3/5-5-5-7-7-7-x-x-x-x-x-2-2-2-2-2-5-5-5-|
|3-3-----3-3-----3-3-----3/5-5-5-5-5-5-5-5-5-5-5-0-0-0-0-0-3-3-3-|

Outro 1: second time around changes a little bit, can't get it ='(
|----------------------------------------------|
|------5---------------------------------------|
|----7-----------------------7-----------------|
|----------------4---------7-----------5---4---| x2
|--3---------------5-----7---------2-----------|
|3-------------0-------5---------0---0---3---3-|

|---------------------|
|5-------5-5-5-0-0----|
|7-------7-7-7-0-0----|
|x-------x-x-x-2-2----|
|3-------3-3-3-3-3----|
|3-------3-3-3--------|

Outro 2: (Goodbye Young Tutor, You Have Outgrown Me)
|------------0--------------------|
|--1-----3-----------1-----3-3-3p1|
|----0-----------0-----0----------|
|---------------------------------| x3
|3-----3---3---3---0-----0-0-0-0--|
|---------------------------------|

|---------|
|1------1-|
|---------|
|---------|
|3------0-|
|---------|
Related for About Falling Acoustic tab