Song name
# A B C D E F G H I J K L M N O P Q R S T U V W X Y Z

Say Anything - Vexed tab

-------------------------------------------------------------------------------
			     Vexed - Say Anything
-------------------------------------------------------------------------------
Tabbed by: Will C. (rocker4life521)
Email: billywhiskers@hotmail.com

Tuning: Standard

I love this song and was very bored, so i tabbed the best i could out of its since its 
to be found, even though its an awesome song. Say Anything rules!  :D

===Intro (x3)===

*Note-the chord in parenthesis is not played the 6th time through both of the intros

e|------------------------------------------------------------------|
B|------------------------------------------------------------------|
G|--------------7-7-------------------------------------------------|
D|--4-4---7-7---7-7---7-7---7-7---7-7---6-6---7--7------------------|
A|--4-4---7-7---5-5---7-7---7-7---7-7---7-7---7--7------------------|
E|--2-2---5-5---5-5---5-5---5-5---5-5---5-5---5--5------------------|

e|------------------------------------------------------------------|
B|------------------------------------------------------------------|
G|--------------7-7-------------------------------------------------|
D|--4-4---7-7---7-7---7-7---------7-7---9-9---7-(7)-----------------|
A|--4-4---7-7---5-5---7-7---7-7---7-7---7-7---7-(7)-----------------|
E|--2-2---5-5---5-5---5-5---5-5---5-5---5-5---5-(5)-----------------|
    Ohhhhhhh...
    Pay your respects
    to a greater intellect
    You're just a pawn, does this
    confession turn you on?

===Verse===

e|-------------------------------------------------------------------|
B|-------------------------------------------------------------------|
G|-7-6-9-6-7-6-9-6--4-4-4s6s4-2-2------------------------------------|
D|-------------------------------------------------------------------|
A|-------------------------------------------------------------------|
E|-------------------------------------------------------------------|
    I know your kind,

e|------------------7-----7-----7------------------------------------|
B|--------------------0-----0----------------------------------------|
G|-7-6-9-6-7-6-9-6------9-----9--------------------------------------|
D|-------------------------------------------------------------------|
A|-------------------------------------------------------------------|
E|-------------------------------------------------------------------|
     you'd do me from behind


e|-------------------------------------------------------------------|
B|-------------------------------------------------------------------|
G|-7-6-9-6-7-6-9-6--4-4-4s6s4-2-2------------------------------------|
D|-------------------------------------------------------------------|
A|-------------------------------------------------------------------|
E|-------------------------------------------------------------------|
     And when everybody stares, their eyes will

e|-----------------5s9-7-7-5-5~\---7---------------------------------|
B|---------------------------------9---------------------------------|
G|-7-6-9-6-7-6-9-6---------------------------------------------------|
D|-------------------------------------------------------------------|
A|-------------------------------------------------------------------|
E|-------------------------------------------------------------------|
     bare the sharpest glare


===Chorus===

e|------12-----------------------------------------------------------|
B|-10-9----9---------------------------------------------------------|
G|-------------9b-9-9--9b-9-9----------------------------------------|
D|-------------7--7-7--7--7-7----------------------------------------|
A|-------------------------------------------------------------------|
E|-------------------------------------------------------------------|
     Everybody knows beneath your clothes

e|------12---------12------------------------------------------------|
B|-10-9----9---7-9----10--10-9-7-------------------------------------|
G|-------------------------------------------------------------------|
D|-------------------------------------------------------------------|
A|-------------------------------------------------------------------|
E|-------------------------------------------------------------------|
     Staring at your toes is just a pose

e|-------------12----------------------------------------------------|
B|---x-x-x-x-9----10-------------------------------------------------|
G|---x-x-x-x---------9b-9-9--9b-9-9----------------------------------|
D|---x-x-x-x---------7--7-7--7--7-7----------------------------------|
A|-------------------------------------------------------------------|
E|-------------------------------------------------------------------|
     Everybody good knows how hard you blow

e|-------------------------------------------------------------------|
B|-------------------------------------------------------------------|
G|---6-6-6-6-6~------------------------------------------------------|
D|---7-7-7-7-7~------------------------------------------------------|
A|---7-7-7-7-7~------------------------------------------------------|
E|---5-5-5-5-5~------------------------------------------------------|
     Everybody knows

==Intro (x3)===

e|------------------------------------------------------------------|
B|------------------------------------------------------------------|
G|--------------7-7-------------------------------------------------|
D|--4-4---7-7---7-7---7-7---7-7---7-7---6-6---7--7------------------|
A|--4-4---7-7---5-5---7-7---7-7---7-7---7-7---7--7------------------|
E|--2-2---5-5---5-5---5-5---5-5---5-5---5-5---5--5------------------|

e|-------------------------------------------------------------------|
B|-------------------------------------------------------------------|
G|--------------7-7--------------------------------------------------|
D|--4-4---7-7---7-7---7-7---------7-7---9-9---7-(7)------------------|
A|--4-4---7-7---5-5---7-7---7-7---7-7---7-7---7-(7)------------------|
E|--2-2---5-5---5-5---5-5---5-5---5-5---5-5---5-(5)------------------|
    Ohhhhh...
    You did me wrong,
    I grinned and played along
    Those days are gone, does this
    confession turn you on?

===Verse(same as 1st verse)===

e|-------------------------------------------------------------------|
B|-------------------------------------------------------------------|
G|-7-6-9-6-7-6-9-6--4-4-4s6s4-2-2------------------------------------|
D|-------------------------------------------------------------------|
A|-------------------------------------------------------------------|
E|-------------------------------------------------------------------|
    I'd see you stoned,

e|------------------7-----7-----7------------------------------------|
B|--------------------0-----0----------------------------------------|
G|-7-6-9-6-7-6-9-6------9-----9--------------------------------------|
D|-------------------------------------------------------------------|
A|-------------------------------------------------------------------|
E|-------------------------------------------------------------------|
     lawn chair to gilded throne

e|-------------------------------------------------------------------|
B|-------------------------------------------------------------------|
G|-7-6-9-6-7-6-9-6--4-4-4s6s4-2-2------------------------------------|
D|-------------------------------------------------------------------|
A|-------------------------------------------------------------------|
E|-------------------------------------------------------------------|
     You cut your tiny ties and now you're

e|-----------------5s9-7-7-5-5~\--9----------------------------------|
B|--------------------------------7----------------------------------|
G|-7-6-9-6-7-6-9-6---------------------------------------------------|
D|-------------------------------------------------------------------|
A|-------------------------------------------------------------------|
E|-------------------------------------------------------------------|
     dangling by a lie

===Chorus(same as 1st chorus)===

e|------12-----------------------------------------------------------|
B|-10-9----9---------------------------------------------------------|
G|-------------9b-9-9--9b-9-9----------------------------------------|
D|-------------7--7-7--7--7-7----------------------------------------|
A|-------------------------------------------------------------------|
E|-------------------------------------------------------------------|
     Everybody knows beneath your clothes

e|------12---------12------------------------------------------------|
B|-10-9----9---7-9----10--10-9-7-------------------------------------|
G|-------------------------------------------------------------------|
D|-------------------------------------------------------------------|
A|-------------------------------------------------------------------|
E|-------------------------------------------------------------------|
     Staring at your toes is just a pose

e|-------------12----------------------------------------------------|
B|---x-x-x-x-9----10-------------------------------------------------|
G|---x-x-x-x---------9b-9-9--9b-9-9----------------------------------|
D|---x-x-x-x---------7--7-7--7--7-7----------------------------------|
A|-------------------------------------------------------------------|
E|-------------------------------------------------------------------|
     Everybody good knows how hard you blow

e|-------------------------------------------------------------------|
B|-------------------------------------------------------------------|
G|---6-6-6-6-6~------------------------------------------------------|
D|---7-7-7-7-7~------------------------------------------------------|
A|---7-7-7-7-7~------------------------------------------------------|
E|---5-5-5-5-7~------------------------------------------------------|
     Everybody knows

===Bridge===

e|-------------------------------------------------------------------|
B|-------------------------------------------------------------------|
G|-----6~------6~-----6~--9-9-9-9------6~------6~-------11-11-9-9-9--|
D|-----7~------7~-----7~--9-9-9-9------7~------7~-------11-11-9-9-9--|
A|-7-7----7-7-----7-7-----7-7-7-7--7-7----7-7-----7-7----9--9-7-7-7--|
E|-5-5----5-5-----5-5--------------5-5----5-5-----5-5----------------|
    You think you're Jesus Christ
    You think you're Jesus Christ

e|-------------------------------------------------------------------|
B|-------------------------------------------------------------------|
G|-----6~------6~------6~------6~------6~------6~-----6~--9-9-9-9----|
D|-----7~------7~------7~------7~------7~------7~-----7~--9-9-9-9----|
A|-7-7-----7-7-----7-7-----7-7-----7-7-----7-7----7-7-----7-7-7-7----|
E|-5-5-----5-5-----5-5-----5-5-----5-5-----5-5----5-5----------------|
    You think you're Jesus Christ
    You think you're Jesus Christ

===Outro===

e|-----/5-4~--/7 5~--/9-7~-----------/5-4~--/7-5~--/9-7~-------------|
B|--------------------------10-9-10-----------------------10-9-10----|
G|-------------------------------------------------------------------|
D|-------------------------------------------------------------------|
A|-------------------------------------------------------------------|
E|-12\---------------------------------------------------------------|
    You're not my Jesus Christ
    You're not my Jesus Christ

e|-12----12----12----12-----9--9-7-7h9p7-----------------------------|
B|----10----10----10----10---------------10--------------------------|
G|-------------------------------------------------------------------|
D|-------------------------------------------------------------------|
A|-------------------------------------------------------------------|
E|-------------------------------------------------------------------|
    You're not my Jesus Christ

e|-12----12----12----12-----9-9~\\\----------------------------------|
B|----10----10----10----10--7-7~\\\----------------------------------|
G|------------------------------------6~-----------------------------|
D|------------------------------------7~-----------------------------|
A|------------------------------------7~-----------------------------|
E|------------------------------------5~-----------------------------|
    You're not my Jesus Christ


It's not EXACT, but it's close enough to get the jist of the song, so you can play 
with that progression. enjoy!


Legend:

| /  slide up
| \  slide down
| h  hammer-on
| p  pull-off
| ~  sustain note
| +  harmonic
| x  Mute note
===============================================================================
Tap to rate this tab
 
# A B C D E F G H I J K L M N O P Q R S T U V W X Y Z