Song name
# A B C D E F G H I J K L M N O P Q R S T U V W X Y Z

Say Anything - Spores Acoustic tab

I got this of of Playsa.net, which is a great site for Say Anything tabs. kind of pissed 
off that they sorta stopped adding to it. if you go to the site they have a Youtube 
of the guy playing it. <3 Mari T. if you want, comment on it, I'll let Scott know.

Say Anything
"Spores" (Acoustic)
Tabbed By: Scott Rome

He plays it live with his guitar tuned to Eb as always. My tab is in E like the album version.

"I was watching.................Stood accused for the last two years-"

Main Riff	   Part two		 Variation
e|-------------------|-X-X--X-X--X-X--X-X-|-X-X-X-------|
B|-------------------|-X-X--X-X--X-X--X-X-|-X-X-X-------|
G|-11b---------------|-X-X--X-X--X-X--X-X-|-X-X-X-11-9--|
D|-11b----11-11-9-11-|-X-X--X-X--X-X--X-X-|-X-X-X-11-9--|
A|--9---9-11-11-9-11-|-X-X--X-X--X-X--X-X-|-X-X-X-------|
E|--9---9--9--9-9--9-|-X-X--X-X--X-X--X-X-|-X-X-X-------|Play 7x then go straight into

I got off...

e|-------------------9--9--9--9-|
B|-------------------9--9--9--9-|
G|-------------------9--9--9--9-|
D|-11-11--11-11-11--11-11-11-11-|
A|-11-11--11-11-11--11-11-11-11-|
E|--9--9---9--9--9---9--9--9--9-|

But I...
(Not correct strumming pattern)

e|--0---0--0--|
B|--0---0--0--|
G|--X---X--X--|
D|--9--11--9--|   x a few
A|--7--11--9--|
E|--5---9--7--|
Same as before:
Then you threw me..

Main Riff	   Part two		 Variation
e|------------------|-X-X--X-X--X-X--X-X-|-X-X-X-------|
B|------------------|-X-X--X-X--X-X--X-X-|-X-X-X-------|
G|-11b--------------|-X-X--X-X--X-X--X-X-|-X-X-X-11-9--|
D|-11b---11-11-9-11-|-X-X--X-X--X-X--X-X-|-X-X-X-11-9--|
A|--9--9-11-11-9-11-|-X-X--X-X--X-X--X-X-|-X-X-X-------|
E|--9--9--9--9-9--9-|-X-X--X-X--X-X--X-X-|-X-X-X-------|

I got off...

e|-------------------9--9--9--9-|
B|-------------------9--9--9--9-|
G|-------------------9--9--9--9-|
D|-11-11--11-11-11--11-11-11-11-|
A|-11-11--11-11-11--11-11-11-11-|
E|--9--9---9--9--9---9--9--9--9-|

But I...
e|--0---0--0--|
B|--0---0--0--|
G|--X---X--X--|
D|--9--11--9--|   x a few
A|--7--11--9--|
E|--5---9--7--|


Instrumental part --> going into "I miss you more tonight"
(Chorus just strummed differently)
e|--0---0--0--|
B|--0---0--0--|
G|--X---X--X--|
D|--9--11--9--|   x a few
A|--7--11--9--|
E|--5---9--7--|

You know I still know...

Main Riff	   Part two		 Variation
e|-------------------|-X-X--X-X--X-X--X-X-|-X-X-X-------|
B|-------------------|-X-X--X-X--X-X--X-X-|-X-X-X-------|
G|-11b---------------|-X-X--X-X--X-X--X-X-|-X-X-X-11-9--|
D|-11b----11-11-9-11-|-X-X--X-X--X-X--X-X-|-X-X-X-11-9--|
A|--9---9-11-11-9-11-|-X-X--X-X--X-X--X-X-|-X-X-X-------|
E|--9---9--9--9-9--9-|-X-X--X-X--X-X--X-X-|-X-X-X-------|

It's your loss.

e|--0--0---0--0---|
B|--0--0---0--0---|
G|--X--X---X--X---|
D|-11-11--11-11---|
A|-11-11--11-11---|
E|--9--9---9--9---|

End on

e|-12--|
B|-14--|
G|-13--|
D|-11--|
A|-----|
E|-----|
Tap to rate this tab
# A B C D E F G H I J K L M N O P Q R S T U V W X Y Z