Guitaretab - guitar tabs
Song name
# A B C D E F G H I J K L M N O P Q R S T U V W X Y Z

Say Anything - An Insult To The Dead tab

Hey guys i'm tabbing this because the other one sucks. this is my first tab but i know 
right. this is only one of the guitar parts and i'm not gonna put up the other one. 
out the strumming from the song. And here you go


Intro

e|--x--x--x--x--|
B|--x--x--x--x--|
G|--x--x--x--x--|
D|--x--x--x--x--|
A|--x--x--x--x--|
E|--x--x--x--x--|

 Verse 1
             Failure is angular      It isn't circle shaped,
e|---9\--3-3--------7-7\----3----77\--3---------3-3------3--------------|
B|---8\--5-5--------8-8\----5----88\--5---------3-3------3--------------|
G|---7\--5-5--------9-9\----5----99\--5---------0-0------0--------------|
D|--------------------------------------------2-2-2------2--------------|
A|--------------------------------------------2-2-2------2--------------|
E|--------------------------------------------0-0-0------0--------------|

   or ever fucked mistake unmade

e|----------------22------2--------------|
B|----------------33------3--------------|
G|----------------22------2--------------| x4
D|-------------0-------------------------|
A|---------------------------------------|
E|---------------------------------------|


Pre Chorus- C


        oh god, forgive me moses jusus alla
e|---------0~~~--------------------0---0---0-----|
B|---------1~~~--------------------1---1---1-----|
G|---------0~~~--------------------0---0---0-----|
D|---------2~~~--------------------2---2---2-----|
A|---------3~~~--------------------3---3---3-----|
E|---------0~~~--------------------0---0---0-----|


Chorus 1

Note: the x's mark to strum while transitioning chords

              I   have made,      such an awful regret
    G                 D                   Em                C
e|--3-3-3-3-3-3-3-xx--2-2-2-2-2-2-2-xx----3-3-3-3-3-3-3-xx--0-0-0-0-0-0-0|
B|--3-3-3-3-3-3-3-xx--3-3-3-3-3-3-3-xx----3-3-3-3-3-3-3-xx--1-1-1-1-1-1-1|
G|--0-0-0-0-0-0-0-xx--2-2-2-2-2-2-2-xx----0-0-0-0-0-0-0-xx--0-0-0-0-0-0-0|x4
D|--0-0-0-0-0-0-0-xx--0-0-0-0-0-0-0-xx----2-2-2-2-2-2-2-xx--2-2-2-2-2-2-2|
A|--2-2-2-2-2-2-2-xx----------------xx----2-2-2-2-2-2-2-xx--3-3-3-3-3-3-3|
E|--3-3-3-3-3-3-3-xx----------------xx----0-0-0-0-0-0-0-xx--0-0-0-0-0-0-0|


Verse 2

          I could be more than this,  With all the time i have,
[ Tab from: http://www.guitaretab.com/s/say-anything/106598.html ]
e|---9\--3-3---7--7\----------3----77\----3-----------3-3----3--------|
B|---8\--5-5---8--8\----------5----88\----5-----------3-3----3--------|
G|---7\--5-5---9--9\----------5----99\----5-----------0-0----0--------|
D|--------------------------------------------------2-2-2----2--------|
A|--------------------------------------------------2-2-2----2--------|
E|--------------------------------------------------0-0-0----0--------|

       i am an insult to the dead

e|----------------22------2--------------|
B|----------------33------3--------------|
G|----------------22------2--------------| x4
D|-------------0-------------------------|
A|---------------------------------------|
E|---------------------------------------|

Chorus 2

Note: the x's mark to strum while transitioning chords

oh god,       I   have made,      such an awful regret
    G                 D                   Em                C
e|--3-3-3-3-3-3-3-xx--2-2-2-2-2-2-2-xx----3-3-3-3-3-3-3-xx--0-0-0-0-0-0-0|
B|--3-3-3-3-3-3-3-xx--3-3-3-3-3-3-3-xx----3-3-3-3-3-3-3-xx--1-1-1-1-1-1-1|
G|--0-0-0-0-0-0-0-xx--2-2-2-2-2-2-2-xx----0-0-0-0-0-0-0-xx--0-0-0-0-0-0-0|x4
D|--0-0-0-0-0-0-0-xx--0-0-0-0-0-0-0-xx----2-2-2-2-2-2-2-xx--2-2-2-2-2-2-2|
A|--2-2-2-2-2-2-2-xx----------------xx----2-2-2-2-2-2-2-xx--3-3-3-3-3-3-3|
E|--3-3-3-3-3-3-3-xx----------------xx----0-0-0-0-0-0-0-xx--0-0-0-0-0-0-0|


Interlude

i came up with both guitar parts for the interlude. you can play either one. i prefer 
first one

  take a permanent vacation,    i've got two months to live

e|-------------------3-33---7--5--5-5-5-5-5-5-5-5-7-7-xx-|
B|-------------------5-55---8--7--7-7-7-7-7-7-7-7-7-7-xx-|
G|-------------------5-55---9--7--7-7-7-7-7-7-7-7-7-7-xx-|
D|-------------------------------------------------------|
A|-------------------------------------------------------|
E|-------------------------------------------------------|


take a permanent vacation, i've got two months to live

e|-----------------0-0--3-2---2-2-2-2-3-3-xx--|
B|-----------------1-1--1-3---3-3-3-3-3-3-xx--|
G|-----------------0-0--0-2---2-2-2-2-2-2-xx--|
D|-----------------2-2--2-0---0-0-0-0-0-0-xx--| x8
A|-----------------3-3--3-----------------xx--|
E|----------------------------------------xx--|


and that's pretty much it. keep playing the interlude until the end and when he sings 
i lay" just kinda pick those chords.  please rate and send me emails on questions or 
thanks
Related for An Insult To The Dead tab
Advertisement will be closed in 10 seconds