Guitaretab - guitar tabs
Song name
# A B C D E F G H I J K L M N O P Q R S T U V W X Y Z

Say Anything - Skinny Mean Man tab

---------------------------------------------------------------------------
			    Skinny Mean Man- Say Anything
---------------------------------------------------------------------------
Tabbed by:Mitch Rushton
Email:mitchr911@aol.com
Tuning:standard

Spoken Word Intro:

e|---------------------------------------------------------|
B|---------------------------------------------------------|
G|--13~--11~--9~--8~--13~--11~--9~--8~--13~--15~--16~--9~--|
D|--13~--11~--9~--9~--13~--11~--9~--9~--13~--15~--16~--9~--|
A|--11~--9-~--7~--7~--11~--9-~--7~--7~--11~--13~--14~--7~--|
E|---------------------------------------------------------|

e|--------------------------|
B|--------------------------|
G|--13~--11~--9~--8-8--8-8--|
D|--13~--11~--9~--9-9--9-9--|
A|--11~--9~---7~--7-7--7-7--|
E|--------------------------|


Verse:

e|---------------------------------------------------------------|
B|---------------------------------------------------------------|
G|--13-13-13-13-13-13-11-11-11-11-11-11-9-9-9-9-9-9-8-8-8-8-8-8--|
D|--13-13-13-13-13-13-11-11-11-11-11-11-9-9-9-9-9-9-9-9-9-9-9-9--|x2
A|--11-11-11-11-11-11-9--9--9--9--9--9--7-7-7-7-7-7-7-7-7-7-7-7--|
E|---------------------------------------------------------------|

e|---------------------------------------------------------------------|
B|---------------------------------------------------------------------|
G|--13-13-13-13-13-13-15-15-15-15-15-15-16-16-16-16-16-16-9-9-9-9-9-9--|
D|---x--x--x--x--x--x--x--x--x--x--x--x--x--x--x--x--x--x-x-x-x-x-x-x--|x1
A|--11-11-11-11-11-11-13-13-13-13-13-13-14-14-14-14-14-14-7-7-7-7-7-7--|
E|---------------------------------------------------------------------|

e|--------------------------------------------------------|
B|--------------------------------------------------------|
G|--13-13-13-13-13-13-11-11-11-11-11-11---9---8-8~--8-8~--|
D|--13-13-13-13-13-13-11-11-11-11-11-11---9---9-9~--9-9~--|x1
A|--11-11-11-11-11-11-9--9--9--9--9--9----7---7-7~--7-7~--|
E|--------------------------------------------------------|


Pre-chorus

Guitar 1:
e|-------------------------------------------------------------------------|
B|-------------------------------------------------------------------------|
G|----9h11p9---11/13\11--13p0-15p0-13p0----9h11p9----11/13\11-13p0-15p0-16-|
D|--9--------9---------------------------9---------9-----------------------|
A|-------------------------------------------------------------------------|
E|-------------------------------------------------------------------------|
[ Tab from: http://www.guitaretab.com/s/say-anything/110663.html ]
Guitar 2:
e|----------------------------------------------------|
B|----------------------------------------------------|
G|--4p0-6p0-8p0-6p0--8/9/11\--4p0-6p0-7p0-9--8/9/11\--|
D|-------------------x-x-x-------------------x-x-x----|
A|-------------------6/7/9\------------------6/7/9\---|
E|----------------------------------------------------|

Chorus:

e|------------------------------------------------|
B|---------12-12-12-12-12-------------------------|
G|---------11-11-11-11-11--11-11-11-11--9-9-9-9---|
D|--9-9-9--9--9--9--9--9---11-11-11-11--9-9-9-9---|
A|--9-9-9------------------9--9--9--9---7-7-7-7---|
E|--7-7-7-----------------------------------------|

Bridge: "Gasoline..."

e|--------------------------------------------------
B|--------------------------------------------------
G|-----------------------------------9-9-9-9-9-9-9--
D|--9--8-8--6-6--9-9-9-9-7-7-7-7-7-7-9-9-9-9-9-9-9--
A|--9--8-8--6-6--9-9-9-9-7-7-7-7-7-7-7-7-7-7-7-7-7--
E|--7--6-6--4-4--7-7-7-7-5-5-5-5-5-5----------------

Outro: "Faaaaster..."
e|-----------------------------------------|
B|---------4--------------------4-4h5-5/7--|
G|----4----4-----------4-------------------|
D|--4---4--4--4-----------4----------------|
A|---------------7-4h6--------7------------|
E|-----------------------------------------|

e|----------------------------|
B|---------4-----------5-4----|
G|----4----4--4------------4--|
D|--4---4--4-----4------------|
A|------------------7---------|
E|----------------------------|

Then Guitar 2 comes with 
e|---------------------------------------------------------------|
B|--1212121212121212---------------------------------------------|
G|--1111111111111111---11h13-11~--11h13-11h13-11h13--------------|
D|--9-9-9-9-9-9-9-9---------------------------------11h13-11-----|
A|-----------------------------------------------------------14--|
E|---------------------------------------------------------------|

e|-------------------------------------------------------------------------|
B|------------------------------12~--------12h14-12-14b16r14p12------------|
G|--11h13-11~-11h13-11h13-11h13------11h13----------------------13-13-13\--|
D|-------------------------------------------------------------------------|
A|-------------------------------------------------------------------------|
E|-------------------------------------------------------------------------|

e|----------------------------------------------------11------------|
B|-------------------------------------------------------14-12h14~--|
G|--------11h13-11~--------------11---------------------------------|
D|-------------------------11h13----11h13p11-11h13p11---------------|
A|-------------------12h14------------------------------------------|
E|--7-9-------------------------------------------------------------|  
  pm___


| /   slide up
| \   slide down
| h   hammer-on
| p   pull-off
| pm  palm muted
| b   bend
| r   release bend
| ~   vibrato
| +   harmonic
| x   Mute note
============================================================================
Related for Skinny Mean Man tab
Advertisement will be closed in 10 seconds