Guitaretab - guitar tabs
Song name
# A B C D E F G H I J K L M N O P Q R S T U V W X Y Z

Say Anything - The Truth Is You Should Lie With Me tab

-------------------------------------------------------------------------------
			     The Truth Is You Should Lie With Me - Say Anything
-------------------------------------------------------------------------------
Tabbed by: xx_mclovin_xx
Email:

Tuning: E, A, D, G, B, E

Bass Intro (0:00-0:09)
E|-------------------------------------------------------------------------|
B|-------------------------------------------------------------------------|
G|-------------------------------------------------------------------------|
D|-------------------------------------------------------------------14--14|
A|-----0-0-7-7-7-11-12-12-12-11-7-7-7-----0-0-7-7-7-11-12-12-12-11-14--14--|
E|-0-0--------------------------------0-0----------------------------------|

(0:09-0:25)
Left Guitar
E|-------------------------------------------------------------------------|
B|-------------------------------------------------------------------------|
G|-------------------------------------------------------------------------|
D|-2-2--------------------------------2-2----------------------------14--14|
A|-2-2-0-0-7-7-7-11-12-12-12-11-7-7-7-2-2-0-0-7-7-7-11-12-12-12-11-14--14--|
E|-0-0--------------------------------0-0----------------------------------|x2
Right Guitar
E|-00-0-00-0--4-7-4-5-5-5-4--00-|
B|-00-0-00-0-5-------------5-00-|
G|------------------------------|
D|------------------------------|
A|------------------------------|
E|------------------------------|x2

(0:25-0:41)
Left Guitar
E|-------------------------------------------------------------|
B|-------------------------------------------------------------|
G|-4-4-4-16-16-16-14-14-14-13-13-13-4-4-4-16-16-16-9-9-9-14-13-|
D|-x-x-x-x-x-x-x--x--x--x--x--x--x-x-x-x--x--x--x-x-x-x--x--|
A|-2-2-2-14-14-14-12-12-12-11-11-11-2-2-2-14-14-14-7-7-7-12-11-|
E|-------------------------------------------------------------|x2
Right Guitar
E|------------------------|
B|------------------------|
G|------------------------|
D|---------(none)---------|
A|------------------------|
E|------------------------|

(0:41-0:50)
Both Guitars
E|-------------4h5-----------------------|
B|---------------------------------------|
G|---4h6-2-2-------4-2---4h6-2-2---------|
D|-2---------2---------2---------22222222|
A|-2---------2---------2---------22222222|
E|-0---------0---------0---------00000000|

(0:50-1:04)
Left Guitar
E|-------------------|
B|-------------------|
G|-16-16-16-16-14-13-|
D|-x--x--x--x--x--x--|
A|-14-14-14-14-12-11-|
E|-------------------|x4
Right Guitar
E|------------------------|
B|------------------------|
G|------------------------|
D|---------(none)---------|
A|------------------------|
E|------------------------|
[ Tab from: http://www.guitaretab.com/s/say-anything/111107.html ]
(1:04-1:12)
Both Guitars
E|--------------------------------------------------------------------|
B|--------------------------------------------------------------------|
G|--------------------------------------------------------------------|
D|--------------------------------------------------------------------|
A|-8-8-8-8-8-8-8-8-9-9-9-9-9-9-9-9-8-8-8-8-8-8-8-8-11-9-9-9-9-9-9-9-9-|
E|-6-6-6-6-6-6-6-6-7-7-7-7-7-7-7-7-6-6-6-6-6-6-6-6-9--7-7-7-7-7-7-7-7-|

(1:12-1:29)
Left Guitar
E|-------------------------------------------------------------|
B|-------------------------------------------------------------|
G|-4-4-4-16-16-16-14-14-14-13-13-13-4-4-4-16-16-16-9-9-9-14-13-|
D|-x-x-x-x-x-x-x--x--x--x--x--x--x-x-x-x--x--x--x-x-x-x--x--|
A|-2-2-2-14-14-14-12-12-12-11-11-11-2-2-2-14-14-14-7-7-7-12-11-|
E|-------------------------------------------------------------|x2
Right Guitar
E|-4-4-4-4-4-4-4-4-5-5-4-4|
B|-5-5-5-5-5-5-5-5-5-5-5-5|
G|------------------------|
D|------------------------|
A|------------------------|
E|------------------------|x4

(1:33)
Both Guitars
E|-0~~~~~~~~~~~~~~-|
B|-0~~~~~~~~~~~~~~-|
G|-1~~~~~~~~~~~~~~-|
D|-2~~~~~~~~~~~~~~-|
A|-2~~~~~~~~~~~~~~-|
E|-0~~~~~~~~~~~~~~-|

(1:45-1:49)
Left Guitar
E|------------------------------------|
B|------------------------------------|
G|------------------------------------|
D|------------------------------------|
A|-2222-2-2-2222-2-2-2222-2-2-2222-2-2|
E|-0000-0-0-0000-0-0-0000-0-0-0000-0-0|
   .... . . .... . . .... . . .... 
Right Guitar
E|-00-xx-00-00-xx-00---|
B|-00-xx-00-00-xx-00---|
G|---------------------|
D|---------------------|
A|------------------2-2|
E|------------------0-0|

(1:53-2:09)
Left Guitar
E|-------------------------------------------------------------|
B|-------------------------------------------------------------|
G|-4-4-4-16-16-16-14-14-14-13-13-13-4-4-4-16-16-16-9-9-9-14-13-|
D|-x-x-x-x-x-x-x--x--x--x--x--x--x-x-x-x--x--x--x-x-x-x--x--|
A|-2-2-2-14-14-14-12-12-12-11-11-11-2-2-2-14-14-14-7-7-7-12-11-|
E|-------------------------------------------------------------|x2
Right Guitar
E|-4-4-4-4-4-4-4-4-5-5-4-4|
B|-5-5-5-5-5-5-5-5-5-5-5-5|
G|------------------------|
D|------------------------|
A|------------------------|
E|------------------------|x4

(2:09-2:26)
Left Guitar
E|------|
B|------|
G|------|
D|-9----|
A|-7-2-7|
E|---0-5|x2
Right Guitar
E|-----------------------|
B|-----------------------|
G|-----------------------|
D|-9999999---------------|
A|-7777777-222222-7777777|
E|---------000000-5555555|x4


(2:26-2:29)
Left Guitar
E|--------------------------------|
B|--------------------------------|
G|--------------------------------|
D|--------------------------------|
A|-----0-0-7-7-7-11-12-12-12-11-7~|
E|-0-0----------------------------|
Right Guitar
E|------------------------|
B|------------------------|
G|------------------------|
D|---------(none)---------|
A|------------------------|
E|------------------------|


| /  slide up
| \  slide down
| h  hammer-on
| p  pull-off
| ~  let it ring
| +  harmonic
| x  mute note
| .  palm mute
===============================================================================
Related for The Truth Is You Should Lie With Me tab