Guitaretab - guitar tabs
Song name
# A B C D E F G H I J K L M N O P Q R S T U V W X Y Z

Say Anything - Baby Girl Im A Blur Acoustic tab

Baby Girl, I'm A Blur (Acoustic) By Say Anything

This is the tab for the Chain Reaction Acoustic Show as played by Max Bemis

Tuning: Eb Ab Db Gb Bb eb

Verse 1

eb|------------------------------------|
Bb|------------------------------------| 
Gb|-----------------(0)----------------| x 6
Db|------(0)--------(0)----------(0)---|
Ab|------(0)----333--0-----------(0)---|
Eb|--555--0---------------3333333-0----|

eb|------0----------0---------0-----0--|
Bb|------0----------0---------0-----0--|
Gb|------0----------0---------0-----0--| x 4
Db|--555---5----555---5----55---555---5|
Ab|-------------333---3----55---555---5|
Eb|--555---5---------------33---333---3|

Pre-Chorus             

eb|------------------------------------|               
Bb|------------------------------------|           
Gb|------------------------------------|                
Db|--5555-------5555----555555---------|
Ab|-------------3333----555555---------|           
Eb|--5555-------3333----333333---------|           

Chorus

eb|------------------------------------|
Bb|--5555--5555--5555555---------------|
Gb|--5555--5555--5555555---------------|x4
Db|--------3333------------------------|
Ab|--5555--3333------------------------|
Eb|--------------5555555---------------|

Verse 2
[ Tab from: http://www.guitaretab.com/s/say-anything/111831.html ]
eb|------------------------------------|
Bb|------------------------------------| 
Gb|-----------------(0)----------------| x 2
Db|------(0)--------(0)----------(0)---|
Ab|------(0)----333--0-----------(0)---|
Eb|--555--0---------------3333333-0----|

eb|------0----------0---------0-----0--|
Bb|------0----------0---------0-----0--|
Gb|------0----------0---------0-----0--| x 4
Db|--555---5----555---5----55---555---5|
Ab|-------------333---3----55---555---5|
Eb|--555---5---------------33---333---3|
 [.....................................]  PM


Pre-Chorus
Chorus


Bridge

eb|--x-------x-------x-----------------|
Bb|--x-------x5--55--x5--55-555555-----| 
Gb|--x5--55--x5--55--x5--55-555555-----| x 4
Db|--x2--22--x3--33--x-----------------|
Ab|--x-------x3--33--x5--55-555555-----|
Eb|--x5--55--x-------x-----------------|

eb|------------------------------------|
Bb|------------------55-55--5----------|
Gb|---55--55--55-55--55-55--5--strum---| x2
Db|---55--55---------------------------|
Ab|-----------33-33--55-55--5----------|
Eb|---55--55--11-11--------------------|
 [.....................................]  PM


eb|------------------------------------|
Bb|-----5-------5-------5---6---5-3----|
Gb|---5---5---5---5---5---5---5--------| x 4
Db|---------3--------------------------|
Ab|-5----------------------------------|
Eb|-----------------5------------------|


Outro

eb|------------------------------------|
Bb|-5--------5-------5-----------------|
Gb|-5--------5-------5-----------------| x 4
Db|----------3-------------------------|
Ab|-5----------------------------------|
Eb|------------------5-----------------|






Related for Baby Girl Im A Blur Acoustic tab
Advertisement will be closed in 10 seconds