Song name
# A B C D E F G H I J K L M N O P Q R S T U V W X Y Z

Say Anything - Tickle Me Red tab

Say Anything
Tickle Me Red

Tab by BlackjackDavy23

This is my first tab so if it sucks F*%^ you.
I'm pretty sure its right and its not
like anyone else has one up so deal with it.

E--------------------|
b--------------------|
g---6----6-----------|
d---7----0----6------|
a---5----7----x------|
e---0----5----7------|
Now I'm getting down early in the afternoon
We'd do a hundred sketchy things I swore I'd never get to do
chorus

E-------------------------|
b-------5------------5----|
g--------6------------6---|
d-----7------------7------|
a--5-------------5--------|
e-------------------------|

I've been waiting all my life for
I've been waiting all my life for
I've been waiting all my life for
I've been waiting all my life for this

Solo sorry I didn't quite get this part down
but try to figure the rest out around

E------------------------------|
b--------------------4/5-5-3-2-|
g--4-2-------2-2-2-------------|
d------------------------------|
a------5-5-5-------------------|
e------------------------------|

E------------------------5-4---|
b--------------------4/5-----5-|
g--4-2-------2-2-2-------------|
d------------------------------|
a------5-5-5-------------------|
e------------------------------|
Tap to rate this tab
 
# A B C D E F G H I J K L M N O P Q R S T U V W X Y Z