Song name
# A B C D E F G H I J K L M N O P Q R S T U V W X Y Z

Say Anything - Sure Baby Hold Back tab

Say Anything

Sure, Baby... Hold Back

tab by BlackjackDavy23

E----------------|
b----------------|
g----------------|
d-------4--------|
a-----2----------|
e---0------------|

E---------------------------------------------|
b---------------------------------------------|
g---------4-----4----4-4-4--------------4-----|
d-------4---4-----4--x-x-x-----4------4---4---|
a-----2-------2------2-2-2---2------2-------2-|
e---0----------------------0------0-----------|

E--x-x-x-x----------------------------|
b--x-x-x-x----------------------------|
g--x-x-x-x-------------9----8----11---|
d--x-x-x-x--6----9-----x x4-x x4-x----| x8
a--x-x-x-x--6 x8-9 x8--7----6----9----|
e--x-x-x-x--4----7--------------------|

E--------------------------|
b--------------------------|
g----------------4-----4---|
d-------4------4---4-----4-|
a-----2------2-------2-----|
e---0------0---------------|


E--------------------     E--------------------|
b--------------------     b--------------------|
g--------------------     g--------------------|
d---2222222---2222--- x2  d---4444444---4444---| x2
a---2222222---2222---     a---4444444---4444---|
e---0000000---0000---     e---2222222---2222---|


E----------------------------------------------------------|
b----------------------------------------------------------|
g----------------------------------------------------------|
d-----------11---11----------6-----------6-----------6---9-|
a---9---9---9----9------7h9--4--4h6-6/7--4--7-6-4/2--4---7-|
e---7---7------------7h9-----------------------------------|

E---------------------------------------------------------|
b---------------------------------------------------------|
g-----------------------------11-11---xxxx---11-11---xxxx-|
d---9-9---xxxx---9-9---xxxx---11-11---xxxx---11-11---xxxx-|
a---9-9---xxxx---9-9---xxxx---9--9----xxxx---9--9----xxxx-|
e---7-7---xxxx---7-7---xxxx-------------------------------|

E------------------------------------------------|
b------------------------------------------------|
g---6-6---xxxx---6-6---xxxx---9-9---xxxx---9-9---|
d---6-6---xxxx---6-6---xxxx---9-9---xxxx---9-9---|
a---4-4---xxxx---4-4---xxxx---7-7---xxxx---7-7---|
e------------------------------------------------|

E--------------------------------------------------------|
b-------------------------11-11-11-11-11-11---111111111--|
g-------------------------11-11-11-11-11-11---111111111--|
d---9-9-9-9-9-9---9999----9--9--9--9--9--9-----9-9-9-9---|
a---9-9-9-9-9-9---9999-----------------------------------|
e---7-7-7-7-7-7---7777-----------------------------------|

E-------------------------------------------------------|
b-------------------------------------------------------|
g---6-6-6-6-6-6---6666-----9-9-9-9-9-9---999------------|
d---6-6-6-6-6-6---6666-----9-9-9-9-9-9---999------------|
a---4-4-4-4-4-4---4444-----7-7-7-7-7-7---777------------|
e-------------------------------------------------------|

Then a couple more times just faster.
Tap to rate this tab
# A B C D E F G H I J K L M N O P Q R S T U V W X Y Z