Guitaretab - guitar tabs
Song name
# A B C D E F G H I J K L M N O P Q R S T U V W X Y Z

Say Anything - Shameless tab

Hey I'm Daniella... The other tab is kinda right it's just played differently and I've 
the whole version so here you go.

Intro-2x
e--------------------------------------------------------------|
b--------------------------------------------------------------|
g--7-9/11h12-9-9-11-12-16-11-7-9-11/12\11-9-7-9-11/12\11-9-7-7-|
d--------------------------------------------------------------|
a--------------------------------------------------------------|
e--------------------------------------------------------------|

Verse-5x
e------------------------------------------------------------|
b------------------------------------------------------------|
g------------------------------------------------------------|
d--12-12-12-12\-7-7-7/-14-14-14-14\-9-9-9--------------------|
a--10-10-10-12\-7-7-7/-14-14-14-14\-7-7-7--------------------|
e--10-10-10-10\-5-5-5/-12-12-12-12\-7-7-7--------------------|

e------------------------|
b------------------------|
g------------------------|
d--12-12-12-12\-7-7-7/-5-|
a--10-10-10-12\-7-7-7/-5-|
e--10-10-10-10\-5-5-5/-3-|

Refrain- 1x
e------------------------------------------------------------|
b------------------------------------------------------------|
g------------------------------------------------------------|
d-7-12-12-12-11-12-12-12-12-7-5-5-5-5-5----------------------|
a-7-12-12-12-11-12-12-12-12-7-5-5-5-5-5----------------------|
e-5-10-10-10--9-10-10-10-10-5-3-3-3-3-3----------------------|

Chorus- 1x
e---------------|
b---------------|
g---------------|
d-7-6-5-4-7-6-5-|
a-7-7-5-5-7-7-5-|
e-5-4-3-2-5-4-3-|

SOLO!!- 1x
e-------------------------------------------------------------|
b-------------------------------------------------------------|
g-7-9-11h12-9-9-11-12-11-9-11-12-11-9-7-7-7h9-11-9-11-9-7-9-7-|
d----------------------------------------9--------------------|
a-------------------------------------------------------------|
e-------------------------------------------------------------|
[ Tab from: http://www.guitaretab.com/s/say-anything/144394.html ]
e---------------------------------------------------------------|
b------------------------------------------15-14-12-14-15-14-12-|
g-11-9-7-7-7-9-11-9-7-9-9h11-11-14-14-16-16---------------------|
d---------------------------------------------------------------|
a---------------------------------------------------------------|
e---------------------------------------------------------------|

e-------------------------------------------------------------|
b-14-15-14-12-14-15-14-12-------------------------------------|
g------------------------14-14--------------------------------|
d-------------------------------------------------------------|
a-------------------------------------------------------------|
e-------------------------------------------------------------|

Verse- 2x
Refrain- 1x
Chorus= 1x

Whatever happened to the Rock N Roll In Your Eyes-2x
e-----------------------------------------------------------|
b-----------------------------------------------------------|
g-----------------------------------------------------------|
d-12-12-12-12-8-8-8-8-5-5-5-5-5-----------------------------|
a-12-12-12-12-8-8-8-8-5-5-5-5-5-----------------------------|
e-10-10-10-10-6-6-6-6-3-3-3-3-3-----------------------------|

Oh I know- 1x
e-----------------------------------------------------------|
b-----------------------------------------------------------|
g-------------------------11-11-11-11-12--------------------|
d-12-12-12-12-14-14-14-14-11-11-11-11-12-12-7-9-12--5-------|
a-12-12-12-12-14-14-14-14-9--9---9-9--10-12-7-9-12--5-------|
e-10-10-10-10-12-12-12-12----------------10-5-7-10--3-------|

Verse- 2x

Chorus- 1x
e-----------------------------------------------------------|
b-----------------------------------------------------------|
g-----------------------------------------------------------|
d-----12----7-------12-11---12-7-7-7-7-7--------------------|
a---12--12-7-7----12-----10-12-7-7-7-7-7--------------------|
e-10------5---3-10----------10-5-5-5-5-5--------------------|

Chorus- 2x
e-----------------------------------------------------------|
b-----------------------------------------------------------|
g-----------------------------------------------------------|
d-12-12-12-12-12-12-12-12-7-7-7-7-7-7-7-7-7-5-5-5-5-5-5-5-5-|
a-12-12-12-12-12-12-12-12-7-7-7-7-7-7-7-7-7-5-5-5-5-5-5-5-5-|
e-10-10-10-10-10-10-10-10-5-5-5-5-5-5-5-5-5-3-3-3-3-3-3-3-3-|

Whatever happened to the Rock n Roll in your Eyes- 2x
Oh I know- 1x

e---------------------------------------|
b---------------------------------------|
g----11--11--11--13--11--11--11--13--11-|
d-12---12--12--12--12--12--12--12--12---|
a-12------------------------------------|
e-10------------------------------------|

And wow... the end.
Related for Shameless tab
Advertisement will be closed in 10 seconds