Song name
# A B C D E F G H I J K L M N O P Q R S T U V W X Y Z

Say Anything - Youre The Wanker If Anyone Is tab

------------------------------------------------------------------------------
	You're The Wanker, If Anyone Is - Say Anything
------------------------------------------------------------------------------
Tabbed By: Jonah Strong
Email:stronguy@sbcglobal.net

Tuning: Standard

 This is an, akward song to play, at best, took awhile to tab out, all by ear, 
	so let me know how it turns out, Thanks.   Jonah

e|---------------------------------------------------------------------------|
B|---------------------------------------------5*-5*-------------------------|
G|------5-4-2-0--0-----0----------5-4-2-0--0---------------------------------|
D|--------------2---0-2-------------------2-0--------------------------------|
A|--3--------------3------------3--------------------------------------------|
E|---------------------------------------------------------------------------|

e|---------------------------------------------------------------------------|
B|---------------------------------------------------------------------------|
G|---------------------------------------------------------------------------|
D|--888-----1010----555------------------------------------------------------|
A|--888-----1010----555------------------------------------------------------|
E|--666-----888-----333-------5--7--9--12------------------------------------|

e|---------------------------------------------------------------------------|
B|---------------------------------------------5*-5*-------------------------|
G|------5-4-2-0--0-----0----------5-4-2-0--0---------------------------------|
D|--------------2---0-2-------------------2-0--------------------------------|
A|--3--------------3------------3--------------------------------------------|
E|---------------------------------------------------------------------------|

e|---------------------------------------------------------------------------|
B|---------------------------------------------------------------------------|
G|---------------------------------------------------------------------------|
D|--888-----1010----555------------------------------------------------------|
A|--888-----1010----555------7777-5-7-5-3------------------------------------|
E|--666-----888-----333------------------------------------------------------|

e|---------------------------------------------------------------------------|
B|------(acoustic)-----------------------------------------------------------|
G|---------11---14--------7--------------------------------------------------|
D|---------11---14--------7------------------------3-------------------------|
A|---------9----12--------5--------------------3-5---5-3h5-3-0---------------|
E|---------------------------------------------------------------------------|

e|---------------------------------------------------------------------------|
B|---------------------------------------------------------------------------|
G|---------------------------------------------------------------------------|
D|------7---------5--------------------------------XXX-5---------------------|
A|------7---------5--------------------------------XXX-5---------------------|
E|------5---------3-slide fingers on string--------XXX-3---------------------|

e|---------------------------------------------------------------------------|
B|---------------------------------------------------------------------------|
G|---------------------------------------------------------------------------|
D|--5--3--10-9---------------------------------------2-5---------------------|
A|--5--3--10-9-----------------------------------3-5-------------------------|
E|--3--1--8--7--------333333333333333333333----------------------------------|

e|---------------------------------------------------------------------------|
B|---------------------------------------3-5-7-9-11-9-7-5-33333333-----------|
G|----5------------------5-------6-5-6---------------------------------3-5-7-5-3-5-3|
D|----5-------0h4-5------5------------------------------------------3-5------|
A|---------------------------------------------------------------------------|
E|-33------33---------33-----33----------------------------------------------|

e|---------------------------------------------------------------------------|
B|---------------------------------------------5*-7*-------------------------|
G|------5-4-2-0--0-----0----------5-4-2-0--0---------------------------------|
D|--------------2---0-2-------------------2-0--------------------------------|
A|--3--------------3------------3--------------------------------------------|
E|---------------------------------------------------------------------------|

e|---------------------------------------------------------------------------|
B|---------------------------------------------------------------------------|
G|---------------------------------------------------------------------------|
D|--777-----1010----555------------------------------------------------------|
A|--777-----1010----555------7777-5-7-5-3------------------------------------|
E|--555-----888-----333------------------------------------------------------|

e|-0-0-0000-0-0-0000-3-3-3-3-------------------------------------------------|
B|-1-1-1111-1-1-1111-3-3-3-3-------------------------------------------------|
G|------------------------------1-3-5-7-5-3-5-1------------------------------|
D|---------------------------------------------------------------------------|
A|---------------------------------------------------------------------------|
E|---------------------------------------------------------------------------|

e|---------------------------------------------------------------------------|
B|---------------------------------------------------------------------------|
G|---------------------------------------------------------------------------|
D|---55----33----33--55---------55555555-------------------------------------|
A|---55----33----33--55----X2---55555555-------------------------------------|
E|---33----11----00--33---------33333333-------------------------------------|

e|---------------------------------------------------------------------------|
B|--------------------------1-1/3/5/0--------------------------------5h0-----|
G|---5-4---5-4/1/7--5-4----5-5----------5-4-----5-4/7/4---5-4-----5/7--------|
D|--5---5-5--------5---5--5------------5----5-5----------5---5---5-----------| 1:54
A|---------------------------------------------------------------------------|
E|---------------------------------------------------------------------------|

e|--5----5---5--5-5h7--5--5--5--5-5h7-3----3-3-3h5---3----33333333-----------|
B|---5----5---5---------5--5--5--------3-0--3------5------33333333--------/10|
G|----5----5---5---------5--5--5------------------------------------5-7-5----|
D|---------------------------------------------------------------------------| 2:06
A|---------------------------------------------------------------------------|
E|---------------------------------------------------------------------------|

e|----------------------------------------------|
B|----------------------------------------------|
G|--------------------------5p3p0-5p3p0-5p3p0-9-|
D|---5XXX5XXX5XXX77777--------------------------| X2
A|---5XXX5XXX5XXX77777-X2-----------------------|
E|---3XXX3XXX3XXX55555--------------------------|

e|---------------------------------------------------------------------------|
B|---------------------------------------------------------------------------|
G|---------------------------------------------------------------------------|
D|------(very faint)-----------------------------3-3--3---3----3-----3-------|
A|------7777888877777----------------------------3-3--3---3----3-----3-------|
E|-----------------------------------------------1-1--1---1----1-----1-------|

e|---------------------------------------------------------------------------|
B|-------------------------(GO F*CK YOURSELF!)-------------------------------|
G|---------------------------------------------------------------------------|
D|---55----33----33--55---------5555-----------------------------------------|
A|---55----33----33--55----X6---5555-----------------------------------------|
E|---33----11----00--33---------3333-----------------------------------------|

| /  slide up
| \  slide down
| h  hammer-on
| p  pull-off
| ~  vibrato
| +  harmonic
| x  Mute note
===============================================================================
Tap to rate this tab
# A B C D E F G H I J K L M N O P Q R S T U V W X Y Z