Guitaretab - guitar tabs
Song name
# A B C D E F G H I J K L M N O P Q R S T U V W X Y Z

Say Anything - Have At Thee tab

-------------------------------------------------------------------------------
			     HAVE AT THEE - Say Anything
-------------------------------------------------------------------------------
Tabbed by:MicahHaseman
Email:MicahHaseman@rock.com

Tuning:Drop D

Intro(clean), use downstrokes for intro

e|------------------------------------------------------------------------------|
B|------------------------------------------------------------------------------|
G|--------9-9-9---------11-11-11-11-11-11-11--6-6-6--9-9-9--4-4-4-4-4--6-6-6----|
D|-0-0-0--7-7-7--0-0-0---9--9--9--9--9--9--9--4-4-4--7-7-7--2-2-2-2-2--4-4-4----|
A|-0-0-0--7-7-7--0-0-0---9--9--9--9--9--9--9--4-4-4--7-7-7--2-2-2-2-2--4-4-4----|
D|-0-0-0--7-7-7--0-0-0---9--9--9--9--9--9--9--4-4-4--7-7-7--2-2-2-2-2--4-4-4----|

e|------------------------------------------------------------------------------|
B|------------------------------------------------------------------------------|
G|--------9-9-9---------11-11-11-11-11-11-11--6-6-6--9-9-9--4-------------------|
D|-0-0-0--7-7-7--0-0-0---9--9--9--9--9--9--9--4-4-4--7-7-7--2-------------------|
A|-0-0-0--7-7-7--0-0-0---9--9--9--9--9--9--9--4-4-4--7-7-7--2-------------------|
D|-0-0-0--7-7-7--0-0-0---9--9--9--9--9--9--9--4-4-4--7-7-7--2-------------------|

Verse 1
                                                                1 e + 2  3
e|--------------------------------------------------------------x-x-x-x-(7)-|
B|--------------------------------------------------------------x-x-x-x-(7)-|
G|--------------------------------------------------------------x-x-x-x-(7)-|
D|-4-4--7-7--4-4--7-7--0-0-----4-4---7-7---4-4---7-7---7--0-0---x-x-x-x-----|
A|-4-4--7-7--4-4--7-7--0-0-----4-4---7-7---4-4---7-7---7--0-0---x-x-x-x-----|
D|-4-4--7-7--4-4--7-7--0-0-----4-4---7-7---4-4---7-7---7--0-0---x-x-x-x-----|

e|--------------------------------------------------(P.H)-----------------------|
B|-----------------------------------5p2-5p2-5p2-2h3-2*v------------------------|
G|--------------------------------------2---2---2-------------------------------|
D|-4---7-7---4-4---7-7---0-0----------------------------------------------------|
A|-4---7-7---4-4---7-7---0-0----------------------------------------------------|
D|-4---7-7---4-4---7-7---0-0----------------------------------------------------|

Pre-Chorus
 *Try to hammer-on the 7's w/ your little finger to make a full chord sound but if you 
just hammer the 6th string

                                                      *downstokes
e|--------------------------------------------------------------------------------|
B|--------------------------------------------------------------------------------|
G|----------------------------------------------7-----7-7-7-7-7-------------------|
D|-4-4-4h(7)---3-3-3h(7)---2-2-2h(7)---1-1/9-7--7--x8-7-7-7-7-7-------------------|
A|-4-4-4h(7)---3-3-3h(7)---2-2-2h(7)---1-1/9-7--5-----5-5-5-5-5-------------------|
D|-4-4-4h-7----3-3-3h-7----2-2-2h------1-1/9-7--0-----0-0-0-0-0-------------------|

Chorus


e|------------------------------------------------------------------------------|
B|------------------------------------------------------------------------------|
G|--------9-9-9---------11-11-11-11-11-11-11--6-6-6--9-9-9--4-4-4-4-4--6-6-6----|
D|-0-0-0--7-7-7--0-0-0---9--9--9--9--9--9--9--4-4-4--7-7-7--2-2-2-2-2--4-4-4-x3-|
A|-0-0-0--7-7-7--0-0-0---9--9--9--9--9--9--9--4-4-4--7-7-7--2-2-2-2-2--4-4-4----|
D|-0-0-0--7-7-7--0-0-0---9--9--9--9--9--9--9--4-4-4--7-7-7--2-2-2-2-2--4-4-4----|

                                                                      (x8)
e|--------------------------------------------------------------------x---------|
B|--------------------------------------------------------------------x---------|
G|--------9-9-9---------11-11-11-11-11-11-11--6-6-6--9-9-9--4-4-4-4---x---------|
D|-0-0-0--7-7-7--0-0-0---9--9--9--9--9--9--9--4-4-4--7-7-7--2-2-2-2---x---------|
A|-0-0-0--7-7-7--0-0-0---9--9--9--9--9--9--9--4-4-4--7-7-7--2-2-2-2---x---------|
D|-0-0-0--7-7-7--0-0-0---9--9--9--9--9--9--9--4-4-4--7-7-7--2-2-2-2---x---------|

Verse 2

e|----------------------------2h4/5---------------------------------------------|
B|-----------------------5p3----------------------------------------------------|
G|--------------------------2----------2h3p2--2h3-4-----------------------------|
D|-4---7---4-4---7-7------------------------2------2----------------------------|
A|-4---7---4-4---7-7------------------------------------------------------------|
D|-4---7---4-4---7-7------------------------------------------------------------|

e|------------------------------------------------------------------------------|
B|--------------------------------------10p9p0-7p0---7\5-5/10-10-10-------------|
G|-----------------------------------7h9----------7h9---------------------------|
D|-4-4---7-7--4-4---7-7--7--0-0-------------------------------------------------|
A|-4-4---7-7--4-4---7-7--7--0-0-------------------------------------------------|
D|-4-4---7-7--4-4---7-7--7--0-0-------------------------------------------------|
[ Tab from: http://www.guitaretab.com/s/say-anything/188325.html ]
e|------------------------------------------------------------------------------|
B|----------------------------------5p2-5p2-5p2-2-2h3-2-------------------------|
G|-4-4---7-7---4-4---7-7---0-0---------2---2---2-2------------------------------|
D|-4-4---7-7---4-4---7-7---0-0--------------------------------------------------|
A|-4-4---7-7---4-4---7-7---0-0--------------------------------------------------|
D|------------------------------------------------------------------------------|

Pre-Chorus


e|--------------------------------------------------------------------------------|
B|--------------------------------------------------------------------------------|
G|----------------------------------------------7-----7-7-7-7-7-------------------|
D|-4-4-4h(7)---3-3-3h(7)---2-2-2h(7)---1-1/9-7--7--x8-7-7-7-7-7-------------------|
A|-4-4-4h(7)---3-3-3h(7)---2-2-2h(7)---1-1/9-7--5-----5-5-5-5-5-------------------|
D|-4-4-4h-7----3-3-3h-7----2-2-2h------1-1/9-7--0-----0-0-0-0-0-------------------|

Chorus/Outro

e|------------------------------------------------------------------------------|
B|------------------------------------------------------------------------------|
G|--------9-9-9---------11-11-11-11-11-11-11--6-6-6--9-9-9--4-4-4-4-4--6-6-6----|
D|-0-0-0--7-7-7--0-0-0---9--9--9--9--9--9--9--4-4-4--7-7-7--2-2-2-2-2--4-4-4----|
A|-0-0-0--7-7-7--0-0-0---9--9--9--9--9--9--9--4-4-4--7-7-7--2-2-2-2-2--4-4-4----|
D|-0-0-0--7-7-7--0-0-0---9--9--9--9--9--9--9--4-4-4--7-7-7--2-2-2-2-2--4-4-4----|

                                                                      (x8)
e|--------------------------------------------------------------------x---------|
B|--------------------------------------------------------------------x---------|
G|--------9-9-9---------11-11-11-11-11-11-11--6-6-6--9-9-9--4-4-4-4---x---------|
D|-0-0-0--7-7-7--0-0-0---9--9--9--9--9--9--9--4-4-4--7-7-7--2-2-2-2---x---------|
A|-0-0-0--7-7-7--0-0-0---9--9--9--9--9--9--9--4-4-4--7-7-7--2-2-2-2---x---------|
D|-0-0-0--7-7-7--0-0-0---9--9--9--9--9--9--9--4-4-4--7-7-7--2-2-2-2---x---------|

Guitar 1 only                                 Guitars 1 and 2
e|------------------------------------------------------------------------------|
B|------------------------------------------------------------------------------|
G|--------9-9-9---------11-11-11-11-11-11-11-(\)-6-6-6--9-9-9--4-4-4-4-4--6-6-6-|
D|-0-0-0--7-7-7--0-0-0---9--9--9--9--9--9--9-(\)-4-4-4--7-7-7--2-2-2-2-2--4-4-4-|
A|-0-0-0--7-7-7--0-0-0---9--9--9--9--9--9--9-(\)-4-4-4--7-7-7--2-2-2-2-2--4-4-4-|
D|-0-0-0--7-7-7--0-0-0---9--9--9--9--9--9--9-(\)-4-4-4--7-7-7--2-2-2-2-2--4-4-4-|

Guitar 2 slides in (\)

e|---------------------------------------------------------------------------|
B|---------------------------------------------------------------------------|
G|--------6-6-6--9-9-9--4-4-4-4-4--6-6-6-------------------------------------|
D|-\------4-4-4--7-7-7--2-2-2-2-2--4-4-4-------------------------------------|
A|--\-----4-4-4--7-7-7--2-2-2-2-2--4-4-4-------------------------------------|
D|---\----4-4-4--7-7-7--2-2-2-2-2--4-4-4-------------------------------------|

                                                                (x?)
e|--------------------------------------------------------------x------------|
B|--------------------------------------------------------------x------------|
G|--------9-9-9----------11-11-11-11-11-11-11--6-6-6--9-9-9--4--x------------|
D|-0-0-0--7-7-7--0-0-0----9--9--9--9--9--9--9--4-4-4--7-7-7--2--x------------|
A|-0-0-0--7-7-7--0-0-0----9--9--9--9--9--9--9--4-4-4--7-7-7--2--x------------|
D|-0-0-0--7-7-7--0-0-0----9--9--9--9--9--9--9--4-4-4--7-7-7--2--x------------|

Drums change


e|------------------------------------------------------------------------------|
B|------------------------------------------------------------------------------|
G|--------9-9-9---------11-11-11-11-11-11-11--6-6-6--9-9-9--4-4-4-4-4--6-6-6----|
D|-0-0-0--7-7-7--0-0-0---9--9--9--9--9--9--9--4-4-4--7-7-7--2-2-2-2-2--4-4-4-x3-|
A|-0-0-0--7-7-7--0-0-0---9--9--9--9--9--9--9--4-4-4--7-7-7--2-2-2-2-2--4-4-4----|
D|-0-0-0--7-7-7--0-0-0---9--9--9--9--9--9--9--4-4-4--7-7-7--2-2-2-2-2--4-4-4----|


Last time guitar one does
e|---------------------------------------------------------------------------------|
B|---------------------------------------------------------------------------------|
G|--6-6-6--7-7-7--4-4-4-4-4-4-4-4------14-14-14--18-18-18--13-13-13-13-13-13-13-13-|
D|---------------------------------------------------------------------------------|
A|--4-4-4--5-5-5--2-2-2-2-2-2-2-2------12-12-12--16-16-16--11-11-11-11-11-11-11-11-|
E|---------------------------------------------------------------------------------|

end on
e|---------------------------------------------------------------------------|
B|---------------------------------------------------------------------------|
G|---------------------------------------------------------------------------|
D|-4-4--7-7--4-4--7-7--0-----------------------------------------------------|
A|-4-4--7-7--4-4--7-7--0-----------------------------------------------------|
D|-4-4--7-7--4-4--7-7--0-----------------------------------------------------|

I know its not perfect but its time somebody put a tab for this up. If there is 
you dont think is correct or if you have questions/comments email me at MicahHaseman@rock.com

| /  slide up
| \  slide down
| h  hammer-on
| p  pull-off
| ~  vibrato
| +  harmonic
| x  Mute note
===============================================================================
Related for Have At Thee tab
×
Have At Thee