Song name
# A B C D E F G H I J K L M N O P Q R S T U V W X Y Z

Say Anything - Thoughts On A Liberal Education tab

this is my first tab. i attempted this because NO ONE ELSE HAS IT. jeez. i know its not
but i figured if i put this up as a beginning everyone could help perfect it. cause i'd
enjoy being able to play this correctly. so don't hate on this humble little intro. 
hug it and pet it and squeeze it and call it GEORGE!!

INTRO
E|------5----------5-----5---------------------------------------|
B|----4---4------4-----4-----------------------------------------|
G|--2-------2--5-----4-------------------------------------------|	X3
D|---------------------------------------------------------------|
A|---------------------------------------------------------------|
E|---------------------------------------------------------------|

E|------5-------5------------------------------------------------|
B|----4---4-----4------------------------------------------------|
G|--2-------2---5------------------------------------------------|
D|---------------------------------------------------------------|
A|---------------------------------------------------------------|
E|---------------------------------------------------------------|
Tap to rate this tab
# A B C D E F G H I J K L M N O P Q R S T U V W X Y Z