Song name
# A B C D E F G H I J K L M N O P Q R S T U V W X Y Z

Say Anything - Crushd tab

Tuning: Standard
Follow along with this video; his strumming at certain points are a little goofy...
http://www.youtube.com/watch?v=AOiuR_kt8Ug

Verse – do this a bunch of times through, and the strumming just varies throughout the song
e|---------------------------------------------------------------------------|
B|---------------------------------------------------------------------------|
G|-----------8-8x------------------------------------------------------------|
D|-9-9x-9-9x-9-9x--8-8-7-7---------------------------------------------------|
A|-7-7x-7-7x-9-9x--4-4-4-4---------------------------------------------------|
E|-9-9x-5-5x-7-7x--2-2-2-2---------------------------------------------------|

Chorus
e|-0-0-0-0-0-0-0-0--0-0-0-0-0-0-0-0------------------------------------------|
B|-0-0-0-0-0-0-0-0--0-0-0-0-0-0-0-0------------------------------------------|
G|--------------------------8-8-8-8------------------------------------------|
D|-8-8-8-8-7-7-7-7--9-9-9-9-9-9-9-9------------------------------------------|
A|-4-4-4-4-4-4-4-4--7-7-7-7-9-9-9-9------------------------------------------|
E|-2-2-2-2-2-2-2-2--5-5-5-5-7-7-7-7------------------------------------------|


And that's pretty much the whole song. Watch the video to figure out the strumming
(towards the end he starts to hit the same chords as the verse but just in different
patterns).

When he sings “Your other suitors...”
e|---------------------------------------------------------------------------|
B|---------------------------------------------------------------------------|
G|---------------------------------------------------------------------------|
D|---------------------------------------------------------------------------|
A|---------------------------------------------------------------------------|
E|-9-9-9-9-9-9-9-9/4-4-4-4-5-5-5-5x------------------------------------------|
And then do some of the above variations of chords. Enjoy
Tap to rate this tab
# A B C D E F G H I J K L M N O P Q R S T U V W X Y Z