Song name
# A B C D E F G H I J K L M N O P Q R S T U V W X Y Z

Say Anything - Crushd tab

-------------------------------------------------------------------------------
			     Crush'd - Say Anything
-------------------------------------------------------------------------------
Tabbed by: Santiago
Email: chagoaz@hotmail.com


Tuning: Standard on this video: http://www.youtube.com/watch?v=AOiuR_kt8Ug&feature=related
	Half tone down on this video: http://www.youtube.com/watch?v=HN2-j1D0fjw

Verse:
e|----------------------------------|               
B|-x-x--x--x-x--x--x-x--x--x-x-x-x--|               
G|-x-x--x--x-x--x--8-8--x--x-x-x-x--|               
D|-9-9--x--9-9--x--9-9--x--7-7-6-6--|  x4  
A|-7-7--x--7-7--x--9-9--x--4-4-4-4--|               
E|-9-9--x--5-5--x--7-7--x--2-2-2-2--|

Pre-chorus:
e|----------------------------------|                       |-----------------0-0-0-0-|
B|-x-x-x-x-x-x-x-x-------------x-x--|                       |-x-x-x-x-x-x-x-x-0-0-0-0-|
G|-x-x-x-x-8-8-8-8-x-x-x-x-x-x-8-8--|                       |-x-x-x-x-8-8-8-8-8-8-8-8-|
D|-9-9-9-9-9-9-9-9-7-7-7-7-6-6/9-9--| x3 and the forth time |-9-9-9-9-9-9-9-9-9-9-9-9-|
A|-7-7-7-7-9-9-9-9-4-4-4-4-4-4/9-9--|                       |-7-7-7-7-9-9-9-9-9-9-9-9-|
E|-5-5-5-5-7-7-7-7-2-2-2-2-2-2/7-7--|                       |-5-5-5-5-7-7-7-7-7-7-7-7-|

Chorus:
e|---------------------------------|
B|-------------------------x-x-x-x-|
G|-x-x-x-x-x-x-x-x-x-x-x-x-8-8-8-8-|
D|-7-7-7-7-6-6-6-6-9-9-9-9-9-9-9-9-|  x4
A|-4-4-4-4-4-4-4-4-7-7-7-7-9-9-9-9-|
E|-2-2-2-2-2-2-2-2-5-5-5-5-7-7-7-7-|

Verse 2:
e|----------------------------------|               
B|-x-x--x--x-x--x--x-x--x--x-x-x-x--|               
G|-x-x--x--x-x--x--8-8--x--x-x-x-x--|               
D|-9-9--x--9-9--x--9-9--x--7-7-6-6--|  x4  or x5 if it is the second video
A|-7-7--x--7-7--x--9-9--x--4-4-4-4--|               
E|-9-9--x--5-5--x--7-7--x--2-2-2-2--|

Pre-chorus:
e|----------------------------------|                       |-----------------0-0-0-0-|
B|-x-x-x-x-x-x-x-x-------------x-x--|                       |-x-x-x-x-x-x-x-x-0-0-0-0-|
G|-x-x-x-x-8-8-8-8-x-x-x-x-x-x-8-8--|                       |-x-x-x-x-8-8-8-8-8-8-8-8-|
D|-9-9-9-9-9-9-9-9-7-7-7-7-6-6/9-9--| x3 and the forth time |-9-9-9-9-9-9-9-9-9-9-9-9-|
A|-7-7-7-7-9-9-9-9-4-4-4-4-4-4/9-9--|                       |-7-7-7-7-9-9-9-9-9-9-9-9-|
E|-5-5-5-5-7-7-7-7-2-2-2-2-2-2/7-7--|                       |-5-5-5-5-7-7-7-7-7-7-7-7-|

Chorus:
e|---------------------------------|
B|-------------------------x-x-x-x-|
G|-x-x-x-x-x-x-x-x-x-x-x-x-8-8-8-8-|
D|-7-7-7-7-6-6-6-6-9-9-9-9-9-9-9-9-|  x4
A|-4-4-4-4-4-4-4-4-7-7-7-7-9-9-9-9-|
E|-2-2-2-2-2-2-2-2-5-5-5-5-7-7-7-7-|

Bridge:
e|----------------------------------------------------------|
B|----------------------------------------x-x-----------x-x-|
G|-------------------------------x-x--x-x-8-8--x-x--x-x-8-8-|
D|-------------------------------9-9--9-9-9-9--9-9--9-9-9-9-|
A|-------------------------------7-7--7-7-9-9--7-7--7-7-9-9-|
E|-9-9-9-9-9-9-9-9-4-4-4-4-7-----5-5--9-9-7-7--5-5--9-9-7-7-|


Chorus:
e|---------------------------------|
B|-------------------------x-x-x-x-|
G|-x-x-x-x-x-x-x-x-x-x-x-x-8-8-8-8-|
D|-7-7-7-7-6-6-6-6-9-9-9-9-9-9-9-9-|  x10
A|-4-4-4-4-4-4-4-4-7-7-7-7-9-9-9-9-|
E|-2-2-2-2-2-2-2-2-5-5-5-5-7-7-7-7-|

Outro: did it hurt part
e|-x-xx---x---x-xx---x---x-xx---x---x-xx---x---|
B|-x-xx---x---x-xx---x---x-xx---x---x-xx---x---|
G|-x-xx---x---x-xx---x---x-xx---x---x-xx---x---|  x2
D|-x-xx---x---x-xx---x---x-xx---x---x-xx---x---|
A|-x-xx---x---x-xx---x---x-xx---x---x-xx---x---|
E|-x-xx---x---x-xx---x---x-xx---x---x-xx---x---|

| /  slide up
| \  slide down
| h  hammer-on
| p  pull-off
| ~  vibrato
| +  harmonic
| x  Mute note
===============================================================================
Tap to rate this tab
 
# A B C D E F G H I J K L M N O P Q R S T U V W X Y Z