Song name
# A B C D E F G H I J K L M N O P Q R S T U V W X Y Z

Say Anything - Eloise tab

Artist: Say Anything
Album: Say Anything
Song: Eloise
Tabbed by: Sheldon M

This song is off of Say Anything's most recent album "Say Anything" (release date is
3). Say Anything is incredible.  This CD is ridiculously good, and if you are a fan of it
out their previously released albums as well.  I was lucky enough to see them live last 
in Boston, and it was the best concert I have EVER been to.  I give props and all my
to Max Bemis and the rest of Say Anything.  Parker Case, thanks for selling me two sweet 
and making fun of me when I bought the yellow one.  And Max, Sherri seems like an 
woman, congratulations from one of your biggest fans.


A note about the tab..the chorus and bridge are close to being correct, I'm not sure if
are 100% but as I continue to play the song and listen to it I will make changes to the
as necessary. Thanks!

CAPO I: <----- IMPORTANT


Intro/Verse I:

e|-----------------------------------|     |--------|
B|-----------------------------------|     |--------|
G|------3-------3--------------------|     |--3--3--|
D|--------4---4---4-----4-------4----| x10 |--4--4--|
A|----2-----2---------2---2---2---2--|     |--2--2--|
E|--4---------------0-------0--------|     |--4--4--|

Chorus:

e:----------------|
B:----------------|
G:---3---4---3----|
D:---4---4---4----|  x4
A:---2---2---4----|
E:---4-------2----|

Verse II:

e|-----------------------------------|     |--------|
B|-----------------------------------|     |--------|
G|------3-------3--------------------|     |--3--3--|
D|--------4---4---4-----4-------4----| x10 |--4--4--|
A|----2-----2---------2---2---2---2--|     |--2--2--|
E|--4---------------0-------2--------|     |--4--4--|

Chorus:

e:----------------|
B:----------------|
G:---3---4---3----|
D:---4---4---4----|  x4
A:---2---2---4----|
E:---4-------2----|

Bridge:

e:------------------|
B:------------------|
G:----4--6--9--4----|
D:----4--6--9--4----|  x4
A:----2--4--7--2----|
E:------------------|

Guitar Break: ---------HERE---------

Chorus/Outro:

e:------------------|
B:------------------|
G:---3---4---3------|
D:---4---4---4------|
A:---2---2---4------|
E:---4-------2------|

Questions/Comments?

better_play_an_ibanez@msn.com
Tap to rate this tab
# A B C D E F G H I J K L M N O P Q R S T U V W X Y Z