Song name
# A B C D E F G H I J K L M N O P Q R S T U V W X Y Z

Say Anything - Ahh Men tab

This is my version of Say Anything's  Ahh...Men
off their new album coming out YESTERDAY!
Feel free to send me any comments, all are welcome.


Intro/Verse:
e----------------------------         e-------------------|
B-----------------00-00------         B-------------------|
G-----------------00-00------         G-------------------|
D---2~~x--8~~-----88-88------ x9      D---2~~x--8~~~~~----|  x1
A---3~~x--9~~-----99-99------         A---3~~x--9~~~~~----|
E---0~~x--0~~-----00-00------         E---0~~x--0~~~~~----|


Verse 2:
e---------------------|
B---------------------|
G-------------8---11--|
D---2~~x--8~---8------|
A---3~~x--9~----9-----|
E---0~~x--0~----------|

e---------------------|
B-----------------11--|
G-------------8-------|
D---2~~x--8~---8------|
A---3~~x--9~----9-----|
E---0~~x--0~----------|

e---------------------|
B---------------------|
G-------------8---11--|
D---2~~x--8~---8------|
A---3~~x--9~----9-----|
E---0~~x--0~----------|

e--------------------|
B--------------------|
G--------------------|
D---2~~x--8~~~~~-----|
A---3~~x--9~~~~~-----|
E---0~~x--0~~~~~-----|

Intro/Verse
Verse 2

Bridge:
e----------------------------------------|
B---------------------------777--77-77---|
G---888--888--88-88----------------------|
D---999--999--99-99----888--888--88-88---|  Reapeat as necessary
A---666--777--77-77----999--999--99-99---|
E----------------------666---------------|

Outro:
e------------------------------------------|
B--------------00-00------------------11/--|
G--------------00-00--------------8--------|
D---2~~x--8~~--88-88---2~~x--8~~---8-------|
A---3~~x--9~~--99-99---3~~x--9~~----9------|
E---0~~x--0~~--00-00---0~~x--0~~-----------|

e-----------------------------------|
B--------------00-00----------------|
G--------------00-00----------------|
D---2~~x--8~~--88-88---2~~x--8~~~~--|
A---3~~x--9~~--99-99---3~~x--9~~~~--|
E---0~~x--0~~--00-00---0~~x--0~~~~--|

END
Tap to rate this tab
 
# A B C D E F G H I J K L M N O P Q R S T U V W X Y Z