Song name
# A B C D E F G H I J K L M N O P Q R S T U V W X Y Z

Say Anything - She Got Away tab

Hey Everyone,
another tab here;
this is a great song,
I love the lo-fi recording(:
and the garage-rock style;D

So I noticed no one had the whole song up,
so Imma give it a shot(:

♫She Got Away♪
Say Anything
Album: Junior Varsity

Standard Tuning

It's a really easy song,
great beginner song if your learning power chords and some easy lead parts.


Intro;Lead:
Guitar 1[Distortion]

e|--------------------------------------|
|---------------------------------------|
|---------------------------------------|
|--1-2-1-2-1-2-1-2-1-2-/4(2)-2-1-2-1----|
|-2-2-------2-2---2-2---------------2---|
E|--------4-----2-----------------------|

Do that 4 times

Guitar 2:
A little less distortion

|----------x-----------|
|----------x-----------|
|----------x-----------|
|-9~-6~-4~-2-----------|
|-9~-6~-4~-2-----------|
|-7~-4~-2~-0-----------|

Those are the chords for basically the whole song
the strumming pattern goes something like this;


Guitar2:

|---------------------------------------------|
|---------------------------------------------|
|---------------------------------------------|
|-xx-9------xx-6------xx-4------xx-2----------|
|-xx-9------xx-6------xx-4------xx-2----------|
|-xx-7-(x4)-xx-4-(x4)-xx-2-(x4)-xx-0-(x4)-----|
  du d      du d      du d      du d

       .:↕ Do both of these twice ↕:.

Guitar 1:

|---------------------------------------------|
|---------------------------------------------|
|---------------------------------------------|
|-9----9-66----6-44----4-22--2-99-------------|
|-9----9-66----6-44----4-22--2-99-------------|
|-7----7-44----4-22----2-00--0-77-------------|


Chorus:
same distortion,

|-----------------------------------------------------------|
|-----------------------------------------------------------|
|----------------------4x-----------------------------------|
|-4------6------2------4x---4------6------2-----4~----------|
|-4------6------2------2x---4------6------2-----4~----------|
|-2-(x8)-4-(x8)-0-(x8)------2-(x8)-4-(x8)-0(x8)-2~----------|

and then repeat the intro(:
(Both Guitars) ☺

1:
e|--------------------------------------|
|---------------------------------------|
|---------------------------------------|
|--1-2-1-2-1-2-1-2-1-2-/4(2)-2-1-2-1----|
|-2-2-------2-2---2-2---------------2---|
E|--------4-----2-----------------------|

2:
|---------------------------------------------|
|---------------------------------------------|
|---------------------------------------------|
|-xx-9------xx-6------xx-4------xx-2----------|
|-xx-9------xx-6------xx-4------xx-2----------|
|-xx-7-(x4)-xx-4-(x4)-xx-2-(x4)-xx-0-(x4)-----|

then it repeats the verse
(exactly the same)

and the chorus
(exactly the same)

then the intro
(single strum chords)

then builds

then chorus
(exactly same)

then intro again
(with strumming pattern)


So ya,
very easy song.
it took me about 5 minutes to figure out.

Have Fun! :D
Tap to rate this tab
# A B C D E F G H I J K L M N O P Q R S T U V W X Y Z