Song name
# A B C D E F G H I J K L M N O P Q R S T U V W X Y Z

Say Anything - Try To Remember Forget tab

Song: Try To Remember, Forget
Band: Say Anything
Tabbed By: Turd Ferguson

This is one of my favorite Say Anything Songs. It was hard to tab because there are
guitars playing through out the song but I was able to work out a decent tab for one guitar.
always feel free to give feed back and us this tab to work out your own version. Listen 
the song for strumming pattern.


Intro:
e|--X-X---------------X-X-----|
B|--X-X---------------X-X-----|
G|--X-X--7-7---7-7---7X-X--7--|
D|--X-X--5-5---5-5---5X-X--5--|
A|--X-X--3-3---3-3---3X-X--3--|
E|--X-X---------------X-X-----|

Verse:
e|-----------------------------------|
B|-----------------------------------|
G|---------7--4----------7--4--------|
D|--5h7-5--5--5----5h7-5-5--5--7--5--| X2
A|-----------------------3--3--3--3--|
E|-----------------------------------|
  "It Is My Birthday....


e|-------------|
B|-------------|
G|----------5--|
D|--5s7s5---5--| X2
A|--5-5-5---3--|
E|--3-3-3------|
  "Light Up A New Joint...


Pre-Chorus:
e|-----------------------------------------------|
B|-----13----12-----8-----7----8----7----8----7--|
G|------0-----0-----0-----0----0----0----0----0--|
D|-----------------------------------------------| X3
A|-s12-----12----10----10----5----5----5----5----|
E|-----------------------------------------------|
  "But I Believed In More....


Chorus:
e|---------------X----------|
B|---------------X----------|
G|--7-7---7-7---7X---7---7--|
D|--5-5---5-5---5X---5---4--|
A|--3-3---3-3---3X---3---5--|
E|---------------X----------|
  "If I Could Pull My Way...


Second Verse Break Down:
e|----------------------------------------------------------|
B|----------------------------------------------------------|
G|------------------------------5-5-----------5-5-----------|
D|--5-5--5-4------5-5--5-4------5-5--5-4------5-5--5-4------| X2
A|--5-5------5-0--5-5------5-0--3-3------5-0--3-3------5-0--|
E|--3-3-----------3-3---------------------------------------|
  "I Have Smoked Away My Pride...


Bridge:
e|-------------------------------------------|
B|-------------------------------------------|
G|--7---4---7---4--7s9---7---4---5---4--7s9--|
D|--X---X---X---X--------x---X---X---X-------| X2
A|--3---3---3---3--------5---5---5---5-------|
E|-------------------------------------------|

e|-----------------|
B|-----------------|
G|--7---7---7---7--|
D|--5---7---5---7--| X2 Second Time Through Palm Mute
A|--3---5---3---5--|
E|-----------------|
  "Stereo's Playing The Same Old Song...


Solo:
e|---------|         e|-------------------------------------------------|
B|---------|         B|-------------------------------------------------|
G|------5--|         G|-------4-2-4-------4-2-4--5-5--4-2-4--5-5--4-2-2-|
D|--5---5--| X2      D|--5-5---------5-5---------5-5---------5-5--------| X2
A|--5---3--|         A|--5-5---------5-5---------3-3---------3-3--------|
E|--3------|         E|--3-3---------3-3--------------------------------|
(Guitar Solo Plays)    "ALRIGHT NOW LETS GO"


Outro:
e|-------------|
B|-------------|
G|--5---7---7--|
D|--5---5---7--| X3
A|------7---5--|
E|--5----------|
  "And In No Time...

Song Ends On Chorus

Good luck and I hope this tab is helpful.
Tap to rate this tab
 
# A B C D E F G H I J K L M N O P Q R S T U V W X Y Z