Song name
# A B C D E F G H I J K L M N O P Q R S T U V W X Y Z

Say Anything - Thoughts On A Liberal Education tab

Song: Thoughts On A Liberal Education
Band Say Anything
Tabbed By: Turd Ferguson

This is a pretty close tab to what he plays. Max uses fuller chords but this is a 
outline of the chord progression. Feel free to build off of this tab and give feed back. 
to the song for the strumming pattern.


Intro:                                  Fourth Time:
e|-----|------------------------|      e|---------------|
B|-----|------------------------|      B|---------------|
G|-----|----9----------7---7----|      G|----9----9--7--|
D|--2--|--9---9-7-----9---9-----| X3   D|--9---9--7--5--|
A|--2--|------------10---9---7--|      A|---------------|
E|--0--|------------------------|      E|---------------|

Verse:
e|--------------------------|      e|-------------------------------|
B|--------------------------|      B|-------------------------------|
G|-------9----------7---7---|      G|------7---------7-----5-4s--9--|
D|-----9---9-7-----9---9----| X2   D|----4---4-----4---4---5-5s--9--|
A|--7------------10---9-----|      A|--5---------5---------3-3s--7--|
E|--------------------------|      E|-------------------------------|
  "I've Been Waiting...              "But Now Your Gone...

Chorus:
e|-----------------|      e|---------------------|
B|-----------------|      B|---------------------|
G|--7-------7---7--|      G|--5---7---7---5---7--|
D|--5---5---7---7--| X2   D|--5---5---7---5---7--|
A|--3---5---5------|      A|------7---5---3---5--|
E|------3-------7--|      E|--5------------------|
  "Silence You...           "This Is My Last Song...

Bridge/Solo:
e|----------------|
B|----------------|
G|-------0--------|
D|--2--2---2---2--| Repeat
A|--2--------2----|
E|--0-------------|


Outro:
e|-------------|
B|-------------|
G|-------------|
D|--2----------|
A|--2-------2--|
E|--0--3-2--0--|


Good luck with this tab and I hope it was helpful for those Say Anything Fans out there.
Tap to rate this tab
# A B C D E F G H I J K L M N O P Q R S T U V W X Y Z