Song name
# A B C D E F G H I J K L M N O P Q R S T U V W X Y Z

Say Anything - Slowly Through A Vector chords

Artist: Say Anything
Album: ...is a Real Boy
Song: Slowly, Through A Vector
Tabbed by: Sheldon M + Duke

Standard Tuning

Intro:

Guitar I:
E|-------------------------------------------------------------|
B|-------------------------------------------------------------|
G|--------------------------2-5------------------------2-5-2-5-|  x2
D|----------2-5---5-5-5-5-5---------------2-5---5-5-5----------|
A|--3-3-3-5-----------------------3-3-3-5----------------------|
E|-------------------------------------------------------------|

Guitar II:
E|---------------------------------------------------------------|
B|-----------------------------------------------------15151515--| (15th fret)
G|----------0-0--------------5-5----------0-0--------------------|  x2
D|---------------------------------------------------------------|
A|---------------------------------------------------------------|
E|---------------------------------------------------------------|

Verse I:

          Passing Slowly...
Guitar I:
E|-----------------------------------------------------------|
B|-------3-------------------------3-3/5---------------------|
G|-----------------------------------------------------------|
D|---2---------------3---------2-------------------3---------|
A|-3---3---------3-----3-----3---3-------------3------3------|
E|-------------1---1-------------------------1---1-----------|

Guitar II:
E|----------------------xxxxx--------------------------xxxxx-|
B|----------------------xxxxx--------------------------xxxxx-|
G|----------------------xxxxx--------------------------xxxxx-|
D|----------------------xxxxx--------------------------xxxxx-|
A|----------------------xxxxx--------------------------xxxxx-|
E|----------------------xxxxx--------------------------xxxxx-|

       With my laugh...
Guitar I:
E|---------------3-------------1p0---------------------------|
B|-------3p0-----------------------3p0-----------------------|
G|-----------------------------------------------------------|  x2
D|---2--------------------------------------------3----------|
A|-3---3-------3-------------3-----------------3----3--------|
E|-------------------------------------------1---1-----------|

Guitar II:
(You play each of these chords 16 times, continously down stroking)
E|-----------------------------------------------------------|
B|-3-3-3-3-3-3---------------3-3-3-3-3-3-3-3-----------------|
G|-0-0-0-0-0-0---------------0-0-0-0-0-0-0-0-----------------|  x2
D|-2-2-2-2-2-2-3-3-3-3-3-3-3-2-2-2-2-2-2-2-2-3-3-3-3-3-3-----|
A|-3-3-3-3-3-3-3-3-3-3-3-3-3-3-3-3-3-3-3-3-3-3-3-3-3-3-3-----|
E|-------------1-1-1-1-1-1-1-----------------1-1-1-1-1-1-----|


Whoaaaa...               Where passing slow...
Guitar I:
E|-------------------------------------------|
B|----------------------------------5p6/8----|
G|-----5----------------------5-5-7-------5~-|
D|-5-7---7-5-7------------5p7----------------|
A|-------------3-----------------------------|
E|-------------------------------------------|

Guitar II:
E|-------------------------------------------|
B|-------------------------------------------|
G|-------------------------------------------|
D|-----------------5-77----------------------|
A|-----------------5-77----------------------|
E|-----------------3-55----------------------|

Whoaaaa....                Slow.. Slow....
Guitar I:
E|-------------------------------------------|
B|-------------------------------------------|
G|-----5---7---------------------------------|
D|-5-7---7---7-------------------------------|
A|-------------3-----------------------------|
E|-------------------------------------------|

Guitar II:
E|-------------------------------------------|
B|-------------------------------------------|
G|-------------------------------------------|
D|-----------------5-77-----7~---5-7---------|
A|-----------------5-77-----7~---5-7---------|
E|-----------------3-55-----5~---3-5---------|

  Drink the colors..
Guitar I:
E|---------------3-------------1p0---------------------------|
B|-------3p0-----------------------3p0-----------------------|
G|-----------------------------------------------------------|
D|---2---------------------------------------------3---------|
A|-3---3-------3-------------3-----------------3-----3-------|
E|-------------------------------------------1---1-----------|

Guitar II:
(You play each of these chords 16 times, continously down stroking)
E|-----------------------------------------------------------|
B|-3-3-3-3-3-3---------------3-3-3-3-3-3-3-3-----------------|
G|-0-0-0-0-0-0---------------0-0-0-0-0-0-0-0-----------------|
D|-2-2-2-2-2-2-3-3-3-3-3-3-3-2-2-2-2-2-2-2-2-3-3-3-3-3-3-----|
A|-3-3-3-3-3-3-3-3-3-3-3-3-3-3-3-3-3-3-3-3-3-3-3-3-3-3-3-----|
E|-------------1-1-1-1-1-1-1-----------------1-1-1-1-1-1-----|

	If you were wrong..
Guitar I:
E|---------------3-------------1p0---------------------------|
B|-------3p0-----------------------3p0-----------------------|
G|-----------------------------------------------------------|
D|---2---------------------------------------------3---------|
A|-3---3-------3-------------3-----------------3-----3-------|
E|-------------------------------------------1---1-----------|

Guitar II:
(You play each of these chords 16 times, continously down stroking)
E|-----------------------------------------------------------|
B|-3-3-3-3-3-3---------------3-3-3-3-3-3-3-3-----------------|
G|-0-0-0-0-0-0---------------0-0-0-0-0-0-0-0-----------------|
D|-2-2-2-2-2-2-3-3-3-3-3-3-3-2-2-2-2-2-2-2-2-3-3-3-3-3-3-----|
A|-3-3-3-3-3-3-3-3-3-3-3-3-3-3-3-3-3-3-3-3-3-3-3-3-3-3-3-----|
E|-------------1-1-1-1-1-1-1-----------------1-1-1-1-1-1-----|

	I'll display my...
Guitar I&II:  (heavily palm muted)
E|-----------------------------------------------------------|
B|-3-x-x-x-x-x---------------3-x-x-x-x-x-x-x-----------------|
G|-0-x-x-x-x-x---------------0-x-x-x-x-x-x-x-----------------|
D|-2-x-x-x-x-x-3-x-x-x-x-x-x-2-x-x-x-x-x-x-x-3-x-x-x-x-x-x---|
A|-3-x-x-x-x-x-3-x-x-x-x-x-x-3-x-x-x-x-x-x-x-3-x-x-x-x-x-x---|
E|-------------1-x-x-x-x-x-x-----------------1-x-x-x-x-x-x---|

Whoaaaa...               Where passing slow...
Guitar I:
E|-------------------------------------------|
B|----------------------------------5p6/8----|
G|-----5----------------------5-5-7-------5~-|
D|-5-7---7-5-7------------5p7----------------|
A|-------------3-----------------------------|
E|-------------------------------------------|

Guitar II:
E|-------------------------------------------|
B|-------------------------------------------|
G|-------------------------------------------|
D|-----------------5-77----------------------|
A|-----------------5-77----------------------|
E|-----------------3-55----------------------|

Whoaaaa....                Slow.. Slow....
Guitar I:
E|-------------------------------------------|
B|-------------------------------------------|
G|-----5---7---------------------------------|
D|-5-7---7---7-------------------------------|
A|-------------3-----------------------------|
E|-------------------------------------------|

Guitar II:
E|-------------------------------------------|
B|-------------------------------------------|
G|-------------------------------------------|
D|-----------------5-77-----7~---5-7---------|
A|-----------------5-77-----7~---5-7---------|
E|-----------------3-55-----5~---3-5---------|

Whoaaaa...               Where passing slow...
Guitar I:
E|-------------------------------------------|
B|-------------------------------------------|
G|-----5-------------------------------------|
D|-5-7---7-5-7-------------------------------|
A|-------------3-----------------------------|
E|-------------------------------------------|

Guitar II:
E|-------------------------------------------|
B|-------------------------------------------|
G|-------------------------------------------|
D|-----------------5/7-7-7-7--5/7-7-7-7------|
A|-----------------5/7-7-7-7--5/7-7-7-7------|
E|-----------------3/5-5-5-5--3/5-5-5-5------|

Whoaaaa....                Slow.. Slow....
Guitar I:
E|-------------------------------------------|
B|-------------------------------------------|
G|-----5---7---------------------------------|
D|-5-7---7---7-------------------------------|
A|-------------3-----------------------------|
E|-------------------------------------------|

Guitar II:
E|-------------------------------------------|
B|-------------------------------------------|
G|-------------------------------------------|
D|-----------------5/7-7-7-7--5/7-7-7\5------|
A|-----------------5/7-7-7-7--5/7-7-7\5------|
E|-----------------3/5-5-5-5--3/5-5-5\3------|

	But when I get...
Guitar I:
E|---------------------------------------------|
B|---------------------------------------------|
G|---------------------------------7---9---7---|
D|-3----2----3----22----3----22----7---9---7---|
A|-3----3----3----33----3----33----5---7---5---|
E|-1----0----1----00----1----00----------------|

Guitar II:
E|---------------------------------------------|
B|---------------------------------------------|
G|---------------------------------7-----------|
D|-3----2----3----22----3----22----7-----3---2-|
A|-3----3----3----33----3----33----5----3-3-3-3|
E|-1----0----1----00----1----00--------1---0---|

	A band of them...
Guitar I:
E|---------------------------------------------|
B|---------------------------------------------|
G|---------------------------------7---9---7---|
D|-3----2----3----22----3----22----7---9---7---|
A|-3----3----3----33----3----33----5---7---5---|
E|-1----0----1----00----1----00----------------|

Guitar II:
E|---------------------------------------------|
B|---------------------------------------------|
G|---------------------------------7-----------|
D|-3----2----3----22----3----22----7-----3---2-|
A|-3----3----3----33----3----33----5----3-3-3-3|
E|-1----0----1----00----1----00--------1---0---|

	I watch them cut..
Guitar I&II:
E|------------------|     E|-------------------|
B|------------------|     B|-------------------|
G|------------------|     G|-7-7-7-7-----------|
D|-2-2-2-2-2-2-2222-| x3  D|-7-7-7-7-----3---2-|
A|-3-3-3-3-3-3-3333-|     A|-5-5-5-5----3-3-3-3|
E|-0-0-0-0-0-0-0000-|     E|-----------1---0---|

	And in I come...
Guitar I&II:
E|------------------|     E|-------------------|
B|------------------|     B|-------------------|
G|------------------|     G|-7-7-7-7-----------|
D|-2-2-2-2-2-2-2222-| x3  D|-7-7-7-7-----3---2-|
A|-3-3-3-3-3-3-3333-|     A|-5-5-5-5----3-3-3-3|
E|-0-0-0-0-0-0-0000-|     E|-----------1---0---|

	Braaaahh...
Guitar I:
E|---------------------------------------------------|
B|---------------------------------------------------|
G|-------------------------------------7----9---7----|
D|-3-333-2-222-3-333-2-222-3-333-2-222-7----9---7----|
A|-3-333-3-333-3-333-3-333-3-333-3-333-5----7---5----|
E|-1-111-0-000-1-111-0-000-1-111-0-000---------------|

Guitar II:                                              x2
E|---------------------------------------------------|
B|---333---------333---------333---------------------|
G|---------------------------------------------------|
D|---------222---------222---------222--------3---2--|
A|-------------------------------------------3-3-3-3-|
E|------------------------------------------1---0----|


Guitar I:
E|--------------|       E|---------------------------|
B|---------555--|       B|-----5---5-------5---5-----|
G|---------555--|       G|---5---5---5---5---5---5---|
D|--------------|       D|-------------4-------------|
A|--------------|       A|-3-------------------------|
E|--------------|       E|---------------------------|

                   x3
Guitar I:
E|-x-x-x-x------|       E|-X-----X-----X-----X-------|
B|-x-x-x-x------|       B|-X-----X-----X-----X-------|
G|-x-x-x-x------|       G|-X-----X-----X-----X-------|
D|-x-x-x-x------|       D|-X-----X-----X-----X-------|
A|-x-x-x-x------|       A|-X-----X-----X-----X-------|
E|-x-x-x-x------|       E|-X-----X-----X-----X-------|

	Ha Ha Ha Show me what you got..
Guitar I&II:
E|----------------------------------|
B|------55-----555-----55-----555---|
G|----5-55---5-555---5-55---5-555---|
D|----------------------------------|
A|--3------3-------3----- 3---------|
E|----------------------------------|
                                           {Repeat this
Guitar I&II:                          until the song is done.}
E|----------------------------------|
B|------55-----555-----55-----555---|
G|----5-55---5-555---5-55---5-555---|
D|--3------3-------3------3---------|
A|----------------------------------|
E|----------------------------------|
Tap to rate this tab
# A B C D E F G H I J K L M N O P Q R S T U V W X Y Z