Song name
# A B C D E F G H I J K L M N O P Q R S T U V W X Y Z

Say Anything - Fed To Death chords

first tab ever. i'm sure it can be improved but i think this is the basics
standard tuning (E,a,d,g,b,e)


(verses.)

There Was A Man from Allentown...
-----------------------------------|
-----------------------------------|
------6-----5----------------------|
------6-----6--------3----4--------|
------4-----3--------4----4--------|
---------------------1----2--------|

^^repeat these chords until after
..."Hang Your Head In Shame Forever"

Second Guitar Solo (played during verses) listen to record for timing
------------------------------------|
------------------------------------|
-3-3-3-3-1-1------------------------|
------------------------------------|
------------------------------------|
------------------------------------|


(Break Down)

"Forever... THIS IS FOREVER" (1:00)

------------------------------------|
------------------------------------|
-11---6-----------------------------|
-11---6---6-------------------------|
-9----4---6-------------------------|
----------4-------------------------|


listen to the record for the timing and strum patterns.
but thats the basics
-Curt
Tap to rate this tab
 
# A B C D E F G H I J K L M N O P Q R S T U V W X Y Z