Song name
# A B C D E F G H I J K L M N O P Q R S T U V W X Y Z

Say Anything - Crushd chords

-------------------------------------------------------------------------------
			     Crush'd (acoustic) - Say Anything
-------------------------------------------------------------------------------
Tabbed by: satsinabox
Email: sats@dynamictuition.co.uk

Check out http://www.dynamicguitar.co.uk for guitar related tabs and truffles!

Tuning: DADGAD up a semitone (D#A#D#G#A#D#)


Intro/Verse

D#|-----------------------------|
A#|-----------------------------|
G#|-------------8-8-------------|
D#|-9--9---7-7--9-9--5-5-4-4----|
A#|-12-12--5-5--9-9--2-2-2-2----|
D#|-9--9---5-5--9-9--2-2-2-2----|

Pre-chorus

D#|---------------------------------|
A#|---------------------------------|
G#|---------------------------------|
D#|-7-7-7-7-7-7-7-7-5-5-5-5-4-4-7-7-|
A#|-5-5-5-5-7-7-7-7-2-2-2-2-2-2-7-7-|
D#|-5-5-5-5-7-7-7-7-2-2-2-2-2-2-7-7-| x 3

D#|-----------------0-0-0-0-|
A#|-----------------0-0-0-0-|
G#|-----------------0-0-0-0-|
D#|-7-7-7-7-9-9-9-9-7-7-7-7-|
A#|-5-5-5-5-9-9-9-9-7-7-7-7-|
D#|-5-5-5-5-9-9-9-9-7-7-7-7-|

Play nice and staccato; keep the notes sharp and short.

Chorus


D#|-0-0-0-0-0-0-0-0-0-0-0-0-0-0-0-0------|
A#|-0-0-0-0-0-0-0-0-0-0-0-0-0-0-0-0------|
G#|-0-0-0-0-0-0-0-0-0-0-0-6-6-6-6-6------|
D#|-5-5-5-4-4-4-4-4-7-7-7-7-7-7-7-7------|
A#|-2-2-2-2-2-2-2-2-5-5-5-7-7-7-7-7------|
D#|-2-2-2-2-2-2-2-2-5-5-5-7-7-7-7-7------|

Second pre-chorus


D#|-0-0-0-0-0-0-0-0-0-0-0-0-0-0-0-0--|
A#|-0-0-0-0-0-0-0-0-0-0-0-0-0-0-0-0--|
G#|-0-0-0-0-0-0-0-0-0-0-0-0-0-0-0-0--|
D#|-9-9-9-9-7-7-7-7-7-7-7-7-5-5-4-4--|
A#|-9-9-9-9-5-5-5-5-7-7-7-7-2-2-2-2--|
D#|-9-9-9-9-5-5-5-5-7-7-7-7-2-2-2-2--| x2

Bridge

D#|------------------------------|
A#|------------------------------|
G#|------------------------------|
D#|------------------------------|
A#|------------------------------|
D#|-9-9-9-9-9-9-9-9-4-4-4-4-7----|


D#|-0-0-0-0-0----------------------|
A#|-0-0-0-0-0----------------------|
G#|-0-0-0-0-0----------------------| You can work out the rhythm here!
D#|-7-7-7-9-7----------------------| It's a bit of a nightmare to tab!
A#|-5-7-5-9-7----------------------|
D#|-5-7-5-9-7----------------------|

D#|--------------------------------|
A#|--------------------------------|
G#|--------------------------------|
D#|-9-9-9-9-9-9-9-9-7-7-7-7-7-7-7-7|
A#|-9-9-9-9-9-9-9-9-5-5-5-5-7-7-7-7|
D#|-9-9-9-9-9-9-9-9-4-4-4-4-7-7-7-7|

D#|-0-0-0-0-0----------------------|
A#|-0-0-0-0-0----------------------|
G#|-0-0-0-0-0----------------------|
D#|-7-7-7-9-7----------------------|
A#|-5-7-5-9-7----------------------|
D#|-5-7-5-9-7----------------------|

Instrumental

Chorus chords

Max uses muted strings to end the song (singing, "Did it hurt, did it hurt..." etc) Its 
an easy rhythm - just have a listen!

Enjoy!

| /  slide up
| \  slide down
| h  hammer-on
| p  pull-off
| ~  vibrato
| +  harmonic
| x  Mute note
===============================================================================
Tap to rate this tab
# A B C D E F G H I J K L M N O P Q R S T U V W X Y Z