Song name
# A B C D E F G H I J K L M N O P Q R S T U V W X Y Z

Say Anything - Admit It tab

This is my first guitar tab that I have ever made. It's not finished at all yet, but 
is what I got so far in a few hours.
If you have any questions, you can email me at flipmode_91@yahoo.com -- or you can catch 
on myspace.com/280339347

Despite your...	(Guitar 1) 		you know nothing...
e|-----------4--4-----------4--4-------------4--4-----------4--4--------------|R
B|-----------4--4-----------4--4-------------4--4-----------4--4--------------|e
G|-1-4-3-----4--4-----------4--4---1-4-3-----4--4-----------4--4--------------|p
D|-------4----------1--4-----------------4----------1--4----------------------|e
A|-----------------------4-------------------------------4--------------------|a
E|----------------------------------------------------------------------------|t

...standards and tastes...							       ...bullshit!
e|-----------4--4-------------4--4--------------4--4-------------4--4---------|R
B|-----------4--4-------------4--4--------------4--4-------------4--4---------|e
G|-----------4--4-------------4--4--------------4--4-------------4--4---------|p
D|------------------8-8-8-6----------------------------8-8-8-6----------------|e
A|-6-6-6-4----------6-6-6-4-----------6-6-6-4----------6-6-6-4----------------|a
E|-4-4-4-2----------------------------4-4-4-2---------------------------------|t

...standards and tastes	(Guitar 2/ Bassline)				         ...bullshit!
e|----------------------------------------------------------------------------|R
B|----------------------------------------------------------------------------|e
G|----------------------------------------------------------------------------|p
D|----------------------------------------------------------------------------|e
A|-------------------6-6-6-4-4-4h6-4---------------------6-6-6-4-4-4h6-4-2----|a
E|-4-4-4-2-2-2-2-2-------------------7-4-4-4-2-2-2-2-2-2----------------------|t

(chorus)					           Woah!	Woah!	    Woah!
e|-x-x-x-x-x-x-x-x-x-x-x-x-x-x-xxx4-4-xx44--4-xx44--4-xx44--------x------|
B|-4-4-4-4-4-4-4-4-4-4-4-4-4-4-xxx4-4-xx44--4-xx44--4-xx44--------4------|
G|-4-4-4-4-4-4-4-4-4-4-4-4-4-4-xxx4-4-xx44--4-xx44--4-xx44--------4------|
D|-2-2-2-2-2-2-2-2-2-2-2-2-2-2-xxx6-6-xx66--6-xx66--6-xx66---6-6-62------|
A|-2-2-2-2-2-2-2-2-2-2-2-2-2-2-xxx6-6-xx66--6-xx66--6-xx66---6-6-62------|
E|-0-0-0-0-0-0-0-0-0-0-0-0-0-0-xxx4-4-xx44--4-xx44--4-xx44---4-4-40------|


e|-x-x-x-x-x-x-x-x-x-x-x-x-x-x-xxx4-4-xx44--4-xx44--4-xx44---------------|
B|-4-4-4-4-4-4-4-4-4-4-4-4-4-4-xxx4-4-xx44--4-xx44--4-xx44---------------|
G|-4-4-4-4-4-4-4-4-4-4-4-4-4-4-xxx4-4-xx44--4-xx44--4-xx44-------4-------|
D|-2-2-2-2-2-2-2-2-2-2-2-2-2-2-xxx6-6-xx66--6-xx66--6-xx66---4-4-4-------|
A|-2-2-2-2-2-2-2-2-2-2-2-2-2-2-xxx6-6-xx66--6-xx66--6-xx66---4-4-2-------|
E|-0-0-0-0-0-0-0-0-0-0-0-0-0-0-xxx4-4-xx44--4-xx44--4-xx44---2-2-2-------|

(Solo)...you spend your time...    ...in which you...
e|----------(4)(4)-----------(4)(4)R----------(4)-(4)----------------(4)(4)--|
B|----------(4)(4)-----------(4)(4)e----------(4)-(4)----------------(4)(4)--|
G|----------(4)(4)-----------(4)(4)p----------(4)-(4)----------------(4)(4)--|
D|---------------------------------e----4------------------4-----------------|
A|-----------------6-6-6-2---------a-4h6-h64------------4h6-h64----4---------|
E|-4-4-4-2-------------------------t--------7h4-2--------------7h4-----------|

e|---------------(4)(4)---------------|
B|---------------(4)(4)---------------|
G|---------------(4)(4)---------------|
D|----4-------------------------------|
A|-4h6-h64-----------------4h64-4h64--|
E|--------7h4-2------2-4-7-----------7|


...we're not worthy...					...bitching about!
e|-----------4--4-------------4--4--------------4--4-------------4--4---------|R
B|-----------4--4-------------4--4--------------4--4-------------4--4---------|e
G|-----------4--4-------------4--4--------------4--4-------------4--4---------|p
D|------------------8-8-8-6----------------------------8-8-8-6----------------|e
A|-6-6-6-4----------6-6-6-4-----------6-6-6-4----------6-6-6-4----------------|a
E|-4-4-4-2----------------------------4-4-4-2---------------------------------|t

(Go back to chorus then return here)


...cuz I'm proud of my life...
e|-------------------------------------|R
B|-555-5-5-4-4-22-4--44-4-4-4-4-44-----|e
G|-444-4-4-4-4-44-4--44-4-4-4-4-44-----|p
D|-222-2-2-2-2-22-6--66-6-6-6-6-44-----|e
A|-------------------------------------|a
E|-------------------------------------|t

(Guitar 2 while playing with Guitar 1 extra)
e|-------------------------------------|R
B|-555-5-5-4-4-22-4--44-4-4-4-4-44-----|e
G|-444-4-4-4-4-44-4--44-4-4-4-4-44-----|p
D|-222-2-2-2-2-22-6--66-6-6-6-6-44-----|e
A|-------------------------------------|a
E|-------------------------------------|t

(Guitar 1 extra)
e|--------------------------------------|
B|-----12-11-7--------------12-11-7--4--|
G|--------------------------------------|
D|-----10-9--5--------------10-9--5-----|
A|--------------------------------------|
E|--------------------------------------|


(Back to chorus tabs) "cuz I'm proud of my life and the things that I have done..."
Tap to rate this tab
# A B C D E F G H I J K L M N O P Q R S T U V W X Y Z