Song name
# A B C D E F G H I J K L M N O P Q R S T U V W X Y Z

Say Anything - Do Better tab

  

    capo on fourth frett all chords are put as if the capo is not there


          intro\verse\ first part of chorus
    e|--------------------------------------------0-------------|
    B|------------------------------------4---------------------|
    G|-------1---------1-------1----------------------------1---|
    D|---------2---------2-------2------2---2--------2----2---2-|
    A|----2------------------2--------4--------4--------0-------|
    E|--0----------0-------2------------------------------------|

        (life is not a spark in space...)


    e|----0-----0-----0---0--|
    B|----0-----0-----0---0--|
    G|-1--1--1--1--1--1-1-1--|
    D|-2-----2-----2----2----|
    A|-0-----0-----2----2----|
    E|-----------------------|
       (simple as a...)

        play the intro before this part for the first part of the chorus
    e|------------------------------------------|
    B|------------------------------------------|
    G|----1---1---1----1----1-----1-----1----1--|
    D|---2-2-2-2-2-2--2-2----2-----2-----2----2-|
    A|--4---4---4----0-----2----2-----2-----2---|
    E|--------------------0----0-----0-----2----|
           (you could do better better than that..)




     e|----------|
     B|----------|
     G|-1-1-1-1--|
     D|-2-2-2-2--|actual strumming pattern not shown try to match this to 
     A|-2-2-4-0--|the song
     E|-0-2------| 

     (you burn so brightly..)

          and thats it the tab may be kind of confusing but its right i promise


   
Tap to rate this tab
# A B C D E F G H I J K L M N O P Q R S T U V W X Y Z