Song name
# A B C D E F G H I J K L M N O P Q R S T U V W X Y Z

Say Anything - Fed To Death tab

Verse:

E|--------------------------------------------------------------|
B|--------------------------------------------------------------|
G|-----------------4-4-4-4\2-2-2--777777------------------------|
D|-777--777--4/555----------------777777-7777777777-------------|
A|-555--555--4/555----------------555555-7777777777-------------|
E|-777--000--2/353-----------------------5555555555-------------|

E|-------------------------------------------------------------|
B|-------------------------------------------------------------|
G|-----------------4-4-4-4\2-2-2--777777-7779999999------------|
D|-777--77---4/5-5----------------777777-7777777777------------|
A|-555--55---4/5-5----------------555555-xxxxxxxxxx------------|
E|-777--000--2/3-3-----------------------5555555555------------|



This is forever...:

E|-----------------------------------------------------------------|
B|-----------------------------------------------------------------|
G|-7-7-7---777--666--666-------------------------------------------|
D|-7-7-7---777--777--777-------------------------------------------|
A|-x-x-x---xxx--xxx--xxx-------------------------------------------|
E|-101010--777--555--555-------------------------------------------|

Note: Those are 10's.
  


Outro:

E|-000--000--000--0000000--0------000--0--0----------0----------|
B|-000--000--000--0000000--0------000--0--0--------0---0--------|
G|-999--888--666--4444444--4/6\4--444--2--2----1-2-------2-1----|
D|--------------------------------------------------------------|
A|--------------------------------------------------------------|
E|--------------------------------------------------------------|
Tap to rate this tab
 
# A B C D E F G H I J K L M N O P Q R S T U V W X Y Z