Song name
# A B C D E F G H I J K L M N O P Q R S T U V W X Y Z

Say Anything - Wow I Can Get Sexual Too tab

This is a pretty easy song to play. But its also pretty fun.

enjoy! 

Verse:

E-0--0-----|
B-1--1-----|
G-0--0-----|
D-2--2-----|
A----------|
E----------|

Chorus:

E|-8---7---8---7---8---7---10---10-|
B|---8---8---8---8---8---8---8----8|
G|---------------------------------|
D|---------------------------------|
A|---------------------------------|
E|---------------------------------|

E|-8---8---10---10---8---8---7---7------|
B|---8---8---8----8---8---8---8----8----|
G|--------------------------------------|
D|--------------------------------------|
A|--------------------------------------|
E|--------------------------------------|

E|-8---7---8---7---8---7---10---10-|
B|---8---8---8---8---8---8---8----8|
G|---------------------------------|
D|---------------------------------|
A|---------------------------------|
E|---------------------------------|

e|-8---8---10---10---8---8---8---8---|
B|---8---8---8----8--8---8---8---8---|
G|-----------------------------------|
D|-----------------------------------|
A|-----------------------------------|
E|-----------------------------------|

Verse 2:

"you're too young to be this empty girl"

E|----------|
B|----------|
G|------5-5-|
D|--5h7-----|
A|----------|
E|----------|

E|------------|
B|------------|
G|------5-7-5-|
D|--5h7-------|
A|------------|
E|------------|

Bridge:

Guitar I / Synth

E|---------------8--7-----------------------------------|
B|--8----8-------------8h10p8-----8------10p8---10p8----|
G|----9-----9-----------------9-----9--------9------9---|
D|------------------------------------------------------|
A|------------------------------------------------------|
E|------------------------------------------------------| x 4

Guitar II

E|-------------------------------------------------------------------|
B|-------------------------------------------------------------------|
G|5--5-5-5--5--5--2--2-2-2--2--2-------------------------------------|
D|5--5-5-5--5--5--2--2-2-2--2--2--2--2-2-2--2--2--5--5-5-5--5--5-----|
A|3--3-3-3--3--3--0--0-0-0--0--0--2--2-2-2--2--2--5--5-5-5--5--5-----|
E|--------------------------------0--0-0-0--0--0--3--3-3-3--3--3-----| x 4


There's a variation on the chorus at the end but I can't really figure it out.

but this is pretty much it.
 




Tap to rate this tab
# A B C D E F G H I J K L M N O P Q R S T U V W X Y Z