Song name
# A B C D E F G H I J K L M N O P Q R S T U V W X Y Z

Say Anything - Cemetery tab

Say Anything - Cemetery

It`s my first tab...so be nice ^^
I`ve heard some different versions of the song so I`ve just put down all the 
parts...listen to the song for the strumming


Tuning: DADDAd

Verse:
"There's a cemetery deep below the sea..."
d |-------------------(12)----------------------------|
A |-------------------(12)----------------------------|
D |--12--12--7--7-----(12)----------------------------|
D |--0---9---4--5-----(12)----------------------------|
A |--0---9---4--5-------------------------------------|
D |--0---9---4--5-------------------------------------|

"You're in my body..."
d |---------------------------------------------------|
A |---------------------------------------------------|
D |-7--11--7---11-------------------------------------|
D |-7--9---0---7--------------------------------------|
A |-5--9---0---7--------------------------------------|
D |-5--9---0---7--------------------------------------|
    .  .   .   .
Chorus:
"If you want to when we die"
d |--0-------0----------------------------------------|
A |--0-------0----------------------------------------|
D |--7---11--7--12--11--------------------------------|
D |--7---9---7--9---7---------------------------------|
A |--5---9---5--9---7---------------------------------|
D |--5---9---5--9---7---------------------------------|


Bridge:
"Last Cigarette..."
d |---------------0--0--0--------0--0--0--0-----------|
A |---------------0--0--0--------0--0--0--0-----------|
D |--7---11--9----7--11-9--------12-11-9--7-----------|
D |--5---9---7----7--11-9--------12-11-9--7-----------|
A |--5---9---7----5--9--7--------x--x--x--x-----------|
D |--5---9---7----5--9--7--------0--0--0--0-----------|
     .   .   .                   (in front of me...)


Don`t know if it`s completely right but that`s how I play it with my band...
Sounds right to me ^^

http://www.youtube.com/watch?v=OBrBStZT8Nw&feature=related
Tap to rate this tab
# A B C D E F G H I J K L M N O P Q R S T U V W X Y Z