Song name
# A B C D E F G H I J K L M N O P Q R S T U V W X Y Z

Say Anything - Color Blind tab

ARTIST: SAY ANYTHING

ALBUM: BASEBALL

SONG TITLE: COLORBLIND

TUNING: E A D G B E

This is an acoustical tab for the song Color Blind that Max Bemis did on

youtube a while back. Its not perfected but for the most part it is how it

should be. Enjoy and keep rockin :)

----------------------------------------------------------------------------|
--------3------------------------------------------------3------------------|
-------------0-----0-----0-----0-----0-----0------------------0-----0-----0-|
----------------2-----------2-----------2------------------------2----------|
-2--------------------2-----------2---------------3--------------------3----|
----------------------------------------------------------------------------|


----------------------------------------------------------------------------|
------------------------------3---------------------------------------------|
----0-----0-----0------------------0-----0-----0-----0-----0-----0----------|
-2-----------2------------------------0-----------0-----------0---------0---|
-------3------------------------------------2-----------2-------------------|
-----------------------3----------------------------------------------------|


-----------------------------------------|
---3-------------------------------------|
--------2-----2-----2-----2-----2-----2--|
-----------0-----------0-----------0-----|
-----------------0-----------0-----------|
-----------------------------------------|

(VERSE 1)

------3--3-3-3-3-3333-------3--3-3-3-3-3333--|
------3--3-3-3-3-3333-------3--3-3-3-3-3333--|
------0--0-0-0-0-0000-------0--0-0-0-0-0000--|  x 4
------2--2-2-2-2-2222-------2--2-2-2-2-2222--|
--2---2--2-2-2-2-2222---3---3--3-3-3-3-3333--|
---------------------------------------------|

(vERSE 2)

------3--3-3-3-3-3333-------3--3-3-3-3-3333--|
------3--3-3-3-3-3333-------3--3-3-3-3-3333--|
------0--0-0-0-0-0000-------0--0-0-0-0-0000--|  x 4
------2--2-2-2-2-2222-------2--2-2-2-2-2222--|
--2---2--2-2-2-2-2222---3---3--3-3-3-3-3333--|
---------------------------------------------|

(CHORUS)

------3--3-3-3-3-3333-------3--3-3-3-3-3333-------3--3-3-3-3-3333---2---2-2-|
------3--3-3-3-3-3333-------3--3-3-3-3-3333-------3--3-3-3-3-3333---3---3-3-|
------0--0-0-0-0-0000-------0--0-0-0-0-0000-------0--0-0-0-0-0000---2---2-2-|
------2--2-2-2-2-2222-------2--2-2-2-2-2222-------0--0-0-0-0-0000---0---0-0-|
--2---2--2-2-2-2-2222---3---3--3-3-3-3-3333-------2--2-2-2-2-2222-----------|
----------------------------------------------3---3--3-3-3-3-3333-----------|


3--3333333--|
3--3333333--|
2--2222222--| x 2
0--0000000--|
------------|
------------|

(VERSE 3)

------3--3-3-3-3-3333-------3--3-3-3-3-3333--|
------3--3-3-3-3-3333-------3--3-3-3-3-3333--|
------0--0-0-0-0-0000-------0--0-0-0-0-0000--|  x 4
------2--2-2-2-2-2222-------2--2-2-2-2-2222--|
--2---2--2-2-2-2-2222---3---3--3-3-3-3-3333--|
---------------------------------------------|

(CHORUS)

------3--3-3-3-3-3333-------3--3-3-3-3-3333-------3--3-3-3-3-3333---2---2-2-|
------3--3-3-3-3-3333-------3--3-3-3-3-3333-------3--3-3-3-3-3333---3---3-3-|
------0--0-0-0-0-0000-------0--0-0-0-0-0000-------0--0-0-0-0-0000---2---2-2-|
------2--2-2-2-2-2222-------2--2-2-2-2-2222-------0--0-0-0-0-0000---0---0-0-|
--2---2--2-2-2-2-2222---3---3--3-3-3-3-3333-------2--2-2-2-2-2222-----------|
----------------------------------------------3---3--3-3-3-3-3333-----------|


3--3333333--|
3--3333333--|
2--2222222--| x 2
0--0000000--|
------------|
------------|


Right after you finish the chorus after verse 3 your gonna repeat the

chorus but do not play the chords. pound your guitar to the beat of

the song in a heart beat like way. Then after that you go back to playing

your guitar for the last chorus.


===================================================
LYRICS

verse 1

Here comes the sadness that i missed so much
That lonley aching comes from every touch
Ive grown acostume to the grays and blacks
cause theyre always comming back...

verse 2

Sit down for supper wont you dine with me
or cant you handle seeing all i see
ive grown to colorblind to seeze my bitching
and ive grown to love the pain..

chorus

cause i move to slow and i think to fast
and the first rainbow i see will be the last
too slow and i think to fast and the first rainbow
i see will be the last...

verse 3

here comes the view ive seen a million times
here comes that boring song with thoughtless ryhmes
i know your sick of me so tell me here
cause you couldve been the one to make it all dissapear

chorus

chorus (no guitar)

chorus ending

==========================================================
Tap to rate this tab
# A B C D E F G H I J K L M N O P Q R S T U V W X Y Z