Song name
# A B C D E F G H I J K L M N O P Q R S T U V W X Y Z

Say Anything - Baseball But Better tab

I am not 100% sure about all of this. However, I thought I should give it a shot, 
because it is a good song.

INTRO
e|-----------------------------------------------------------|
B|-----------------------------------------------------------|
G|-----------------------------------------------------------|
D|----222--4--5--444--5--7--101010--9--5---7777--9h7---5h4---|
A|----333--3--3--555--5--5---7-7-7--7--7---------------------|
E|-----------------------------------------------------------|

This ^ is repeated over and over until the chorus.

Chorus (strumming not exact)
e|--------------------------------------|
B|--------------------------------------|
G|----5555555---999--777---7/9/7--------|  Repeat
D|----5555555---xxx--xxx---x/x/x--------|
A|----3333333---777--555---5/7/5--------|
E|--------------------------------------|

The last part of the chorus you just strum this chord for a longer period of time.
e|----------------------------------|
B|----------------------------------|
G|-------5555555555-----------------|
D|-------5555555555-----------------|
A|-------3333333333-----------------|
E|----------------------------------|

Verse #2
e|--------------------------------------|
B|--------------------------------------|
G|--------------------------------------|
D|-----222----44--101010---44-----------|
A|-----333----55---7-7-7---55-----------|
E|--------------------------------------|

after playing this ^ repeat the Intro and Chorus

Then....
e|---------------------|
B|---------------------|
G|---------------------|  do the first two parts as triplets
D|-----222-222-2~------|
A|-----222-222-2~------|
E|-----000-000-0~------|  
       ... ... 

2:03 I can barely hear this so sorry if it's not 100%
e|--------------------------------------|
B|--------------------------------------|  
G|---333-555-777-121212-9999999---------|
D|--------------------------------------| 
A|--------------------------------------|
E|--------------------------------------|

2:26
e|--------------------------------------|
B|--------------------------------------|
G|------44--22---------77---------------|
D|------xx--xx---55----xx----5555-------| repeat as needed
A|------22--00---55----55----5555-------|
E|---------------33----------3333-------|

lead 2:32
e|--------------------------------------------|
B|--------------------------------------------|
G|---1212--1414--1616--1919-----1212121212----|
D|----x-x---x-x---x-x---x-x------x-x-x-x-x----| 
A|---1010--1212--1414--1717-----1010101010----|
E|--------------------------------------------|


@ 2:49 is sounds like he is just bending this(see below) over and over, but I could be wrong.

e|-----------------------|
B|-----------17b---------|
G|-----------------------|
D|-----------------------| 
A|-----------------------|
E|-----------------------|

then the ending
e|--------------------------------------|
B|--------------------------------------|
G|--------------------------------------|
D|----2-222-2-222-2-222--2-22-2~--------| 
A|----2-222-2-222-2-222--2-22-2~--------|
E|----0-000-0-000-0-000--0-00-0~--------|
      . ... . ... . ...  . ..

and that's it, please comment and rate :) 
 
Tap to rate this tab
 
# A B C D E F G H I J K L M N O P Q R S T U V W X Y Z