Song name
# A B C D E F G H I J K L M N O P Q R S T U V W X Y Z

Say Anything - Ants In My Pants tab

Intro:
e|------------------------------------------------------------------------|
B|------------------------------------------------------------------------|
G|--9--9---9--9---9--9---9--9--9--9--9--9---9--9---9--9---9---------------|
D|--7--7---9--9---7--7---7--7--7--7--7--7---9--9---7--7---7---------------|
A|--9--9---7--7---6--6---5--5--4--4--9--9---7--7---6--6---5---------------|
E|------------------------------------------------------------------------|

Verse:
e|------------------------------------------------------------------------|
B|------------------------------------------------------------------------|
G|--9-----9-----9-----9---9-----9-----9-----9-----------------------------|
D|--7-----9-----7-----7---7-----7-----9-----7-----------------------------|
A|--9-----7-----5-----4---7-----9-----7-----5-----------------------------|
E|------------------------------------------------------------------------|

e|------------------------------------------------------------------------|
B|------------------------------------------------------------------------|
G|--9-----9-----9-----9---9-----9-----9-----9-----9-----------------------|
D|--7-----9-----7-----7---7-----7-----9-----7-----7-----------------------|
A|--9-----7-----5-----4---7-----9-----7-----5-----8-----------------------|
E|------------------------------------------------------------------------|

Pre-Chorus:
e|------------------------------------------------------------------------|
B|------------------------------------------------------------------------|
G|--9-----9-----9---------------------------------------------------------|
D|--7-----9-----7---------------------------------------------------------|
A|--9-----7-----5---------------------------------------------------------|
E|------------------------------------------------------------------------|

Chorus:(listen for the strum pattern)
e|------------------------------------------------------------------------|
B|------------9--------7--------6-----------------------------------------|
G|--7--------9--------7--------7--------7----9----9----9----9----9--------|
D|--7--------7--------x--------x--------7----9----7----9----7----9--------|
A|--5--------x--------7--------7--------5----7----9----7----5----7--------|
E|------------------------------------------------------------------------|

e|------------------------------------------------------------------------|
B|------------------------------------------------------------------------|
G|--9----9----9----9------------------------------------------------------|
D|--7----9----7----9------------------------------------------------------|
A|--9----7----5----7------------------------------------------------------|
E|------------------------------------------------------------------------|
                   [x2]

For the little fill between the chorus and the second verse, play the intro again.
Keep in mind that the strum pattern for this part is a little different than the intro, though.

Solo:
e|------------------------------------------------------------------------|
B|------------------------------------------------------------------------|
G|---7---9---9---9--------------------------------------------------------|
D|---7---9---7---9--------------------------------------------------------|
A|---x---x---9---7--------------------------------------------------------|
E|---7---9----------------------------------------------------------------|

Okay, this part starts to get kinda tricky and less simple & organized.
There's a change up in tempo and in strum pattern.

Bridge:
part 1
e|-----------------------|
B|-----------------------|
G|---7---9---9---9-------|
D|---7---9---7---9-------|
A|---x---x---9---7-------|
E|---7---9---------------|
	[x7]

e|------------------------------------------------------------------------|
B|------------------------------------------------------------------------|
G|---7---9---9-----9-----9-----9---9---9-----9-----9----------------------|
D|---7---9---7-----9-----7-----7---7---7-----9-----7----------------------|
A|---x---x---9-----7-----5-----4---7---9-----7-----5----------------------|
E|---7---9----------------------------------------------------------------|
	[x1]

part 2
e|------------------------------------------------------------------------|
B|------------------------------------------------------------------------|
G|---9----------7----9--9-------------------------------------------------|
D|---7----7----7----7--9--------------------------------------------------|
A|---5----7----x----9--7--------------------------------------------------|
E|--------5----7----------------------------------------------------------|
This part is played a few different ways throughout the ending of the song.
This is the basic progression, but you should play along with the song to get the feel 
how you should play it.

As for the outro, it's a bass riff, obviously.
It's played similar to the intro, with a couple other interjecting notes.

This is a great song, and was incredibly difficult to tab.
So have fun playing it.
Tap to rate this tab
# A B C D E F G H I J K L M N O P Q R S T U V W X Y Z