Song name
# A B C D E F G H I J K L M N O P Q R S T U V W X Y Z

Say Anything - Do Better tab

Say Anything-Do Better
From the album: Say Anything
Tuned Half Step Down (eb Bb Gb Db Ab Eb)

p= pull off
h= hammer on
b= bend

Tab By mwz777 (Matt Zito)
This is ONLY the solo. btw this is my first tab so it might not be perfect because it 
me FOREVER to figure out and
it was really hard to figure out. Thanks. Enjoy.


-------------------------12------------9p0h4p0h5p0h4p0h9p0h5p0h10p0h5p0-|
--10-----10-----10---9--------10----------------------------------------|
-----9------9----------9----9----9---9----------------------------------|
-------7------7----7---------------7------------------------------------|
------------------------------------------------------------------------|
------------------------------------------------------------------------|

----------------------5-5-5---------5p0h7p0h9p0h5p0------------|
----------------------5-5-5-------5-----------------9/-5/-2/-0-|
-----14-13------------2-2-2-2-2h4------------------------------|
--7/-------14-9-7-11/-2-2-2------------------------------------|
---------------------------------------------------------------|
---------------------------------------------------------------|


---------------------------------------------|
--10-10-12-12-14-14b(15)-------------14/-----|
--9--9--9--9-------------------------14/-----| The End!
-------------------------11-11-11-12---------|
---------------------------------------------|
---------------------------------------------|

     Please rate 5 stars!!!!!*****
Tap to rate this tab
# A B C D E F G H I J K L M N O P Q R S T U V W X Y Z