Song name
# A B C D E F G H I J K L M N O P Q R S T U V W X Y Z

Say Anything - I Could Be President tab

Hey Guys! Love this song and I couldn't find the tabs for it anywhere on line so I think 
figured it out. At least it sounds good and you can sing along with it. This is my very 
tab so don't hate me if it isn't correct. Its a pretty easy song tho.

----------------------------------------------------------------------------
			     I Could Be President - Say Anything
----------------------------------------------------------------------------
Tabbed by:Nick
Email:

Tuning: Drop D

Verse
e|-------------------------------------------------------------------------------|
B|-------------------------------------------------------------------------------|
G|7777666644444--7s9-9---9---9s11------------------------------------------------|
D|0000000000000-------------------Repeat through verse---------------------------|
A|XXXXXXXXXXXXX------------------------------------------------------------------|
D|9999777755555------------------------------------------------------------------|

Chorus
e|----------------------------------------------------------------------------|
B|----------------------------------------------------------------------------|
G|77776666444446666-----------------------------------------------------------|
D|00000000000000000-----------------------------------------------------------|
A|XXXXXXXXXXXXXXXXX-----------------------------------------------------------|
D|99997777555557777-----------------------------------------------------------|

Bridge...thing (if i were present then..)
e|----------------------------------------------------------------------------|
B|----------------------------------------------------------------------------|
G|77---44---------------------------------------------------------------------|
D|00---00---------------------------------------------------------------------|
A|XX---XX---------------------------------------------------------------------|
D|99---55---------------------------------------------------------------------|

So there it is! HAVE FUN! It probably isn't complete or right but it gets you playing!
Tap to rate this tab
 
# A B C D E F G H I J K L M N O P Q R S T U V W X Y Z