Song name
# A B C D E F G H I J K L M N O P Q R S T U V W X Y Z

Say Anything - By Tonight tab

Tuning: Standard

e|---------------------------------------------------------------------------|
B|-------3-5^-------3-5^-5^-3------3-5^-------3-5-7-8-7----------------------|
G|---2h4--------2h4------------2h4--------2h4--------------------------------|
D|---------------------------------------------------------------------------|
A|---------------------------------------------------------------------------|
E|---------------------------------------------------------------------------|

e|---------------------------------------------------------------------------|
B|---10-10-7-12--7-10-7-10-12-10--------3-5^------3--3--3---3----------------|
G|----------------------------------2h4-------2h4--4---4--4---4--------------|
D|---------------------------------------------------------------------------|
A|---------------------------------------------------------------------------|
E|---------------------------------------------------------------------------|
Tap to rate this tab
 
# A B C D E F G H I J K L M N O P Q R S T U V W X Y Z